Oops, an error
Loading. Please wait.

Un Pato bass

604 views 1 this week
no commentswrite comment
1 2 3 4 5
3 more votes to show rating
add to favorites
×
Save as Personal and add changes to this tab that will be seen only by you. Learn more ›
×
You can save this tab as Personal to edit and correct it or add notes. All changes will be seen only by you. Learn more »
launch autoscroll
font size
0
reset
guitar tuner
edit
Autoscroll
slow
fast
+/-
esc
set tempo
stop
Bueno hacia tiempo que no posteaba nada
y pues ahora les traigo un tema en bossa muy chido
algunas cositas:
x = notas muteadas, si quieren no las usen, pero suena mejor asi
     (cada vez que vean no dejen sonar la nota, solo percutivo)
h = hammer

+ = cuando vean esto, jalan el traste, como un vibrato,
    se ubicaran mejor escuchando la cancion

/ = slides

nota:donde vean esto "****"
ahi empieza el bajo en el tema del disco
lo anterior lo saque de uno en vivo

bueno ahi les va
Intro
E|-------|     |-----|
A|-------| x7  |-----|
D|----7--|     |-----|
G|--7----|     |--7--|

Un pato...  Un ganzo...
E|--------|-------|-------|--------|
A|--------|-------|-------|--------|
D|---7--7-|--9--9-|--9-7--|--7--7--| x2
G|--7--7--|-9--9--|-9---9-|-7--7---|

Cuando queria estallar...
E|----------|-----------|-------|----------|
A|----------|-----------|-------|----------|
D|--7-7-----|-5-5-5--5--|--9--7-|-----7----|
G|------7-7-|-----------|-9--9--|-7-7---7--|

Sus notas feas...
E|----------|---------|---------|-------|----|
A|----------|---------|---------|-7-----|----|
D|--5-5-4-7-|-5-5-4-7-|-5-5-4-4-|-----7-|----|
G|----------|---------|---------|---9---|-7--|
                                         **** --> ahi empieza el bajo
Cui cui cui...
E|--------------|--------------|---------------|
A|--x---2-x---2-|-2----2--0-0--|------0-0---0--|
D|---2-x---2-x--|--x2-x--2---2-|-2-0-0---0-0---|
G|--------------|--------------|---------------|

...se entusiasmo...
E|--------------|-----------|---------|
A|--x---2-x---2-|-2----2--0-|-0-------|
D|---2-x---2-x--|--x2-x--2--|--2-2-0--|
G|--------------|-----------|---------|

solo de marimba o lo que sea
E|-----5-x--|--------|-----------|---x0-5-------|--5-x--|------|
A|--5-x---5-|------7-|-----------|-7------7-6-5-|-x---5-|-5-7--|
D|----------|-7-8-9--|-9-10-11/7-|--------------|-------|------|
G|----------|--------|-----------|--------------|-------|------|

Cuando queria...
E|--5-x-----|--5-|-3-x3-3-3/7-|----7----7-|----5-5----|
A|-----7-x5-|-x--|------------|-7-x--7-x--|-5-x---75--|
D|----------|----|------------|-----------|-----------|
G|----------|----|------------|-----------|-----------|
                   +  + +
Sus notas feas
E|--3---2---|-3-------|-3---3/5/7--0-5-----|
A|----5---0-|---5---2-|---5------7---------|
D|----------|-----4---|---------------7/2--|
G|----------|---------|--------------------|

Cui cui cui...
E|---------------|--------------|---------------|
A|-------2-x---2-|-2----2--0-0--|------0-0---0--|
D|--122-x---2-x--|--x2-x--2---2-|-2-0-0---0-0---|
G|---------------|--------------|---------------|

un pato
E|-------------|-------------|----------------------|
A|--x---2-x----|-x---2--0-0--|-x3h5-x3h5-x3h5-x3h5--|
D|---2-x---2---|--2-x--2---2-|----------------------|
G|-----------4-|-------------|----------------------|

...cui cui cui...
E|----------------------|-----------x3h5-x3h5--|
A|--x6h7-x6h7-x6h7-x6h7-|-x6h7-x6h7------------|
D|----------------------|----------------------|
G|----------------------|----------------------|

Fin
E|-----------------|----|
A|-----------7h9-5-|-5--|
D|-----99-77-------|----|
G|--77-------------|----|

dedicado, pa la mejor ****, pues es secreto

atte. miauricio_gatolar

            
            
Suggest correction
Creating personal tab
Creating personal tab
You can edit any tab online and save it as your Personal.

You can edit, replace or remove any tab part or add personal notes – all changes will be seen only by you.

Personal tabs can be accessed anytime from any device, even offline.
Learn more »
Give kudos to tab author, rate the tab!
1 2 3 4 5
comments
print report bad tab
guest
Wanna post a correction for this tab? Suggest correction