Oops, an error
Loading. Please wait.

Torn Chords

version 1
version 1

Whole song

Interactive

2,142,893 views 3,945 this week
40 commentsread comments
1 2 3 4 5
excellent!
x 339
add to favorites
launch autoscroll
font size
0
reset
transpose
0
reset
display chords
guitar tuner
Autoscroll
slow
fast
+/-
esc
set tempo
stop
Help us to improve Ultimate-Guitar.com Take our survey!
×
[Intro]

F   Bb   F   Gm


[Verse 1]

          F                                      Am
            I thought I saw a man brought to life
                                                     Bb
            He was warm, he came around like he was dignified
       
            He showed me what it was to cry
          F                                       Am
            Well you couldn't be that man I adored
                   
            You don't seem to know 
                                         Bb
            Don't seem to care what your heart is for 

            But I don't know him anymore 


[Pre Chorus 1]

                         Dm
                 There's nothing where he used to lie 
                C 
                 My conversation has run dry 
               Am
                 That's what's going on 
               C                       
                 Nothing's fine
                       F 
                 I'm torn


[Chorus 1]

           F                     C                Dm
             I'm all out of faith, this is how I feel
                               Bb                         F
             I'm cold and I am shamed, lying naked on the floor 
                               C                      Dm
                Illusion never changed, into something real 
                                Bb                              F
             I'm wide awake and I can see, the perfect sky is torn
                              C                  Dm   C   Bb
             You're a little late, I'm already torn 


[Verse 2]

          F                                      Am
            So I guess the fortune teller's right
                                                                Bb
            I should have seen just what was there and not some holy light
  
            But you crawl beneath my veins and now
  

[Pre Chorus 2]

                         Dm
                 I don't care, I have no luck
                C
                 I don't miss it all that much 
               Am
                 There's just so many things
               C
                 That I can't touch
                       F
                 I'm torn



[Chorus 2]

           F                     C                Dm
             I'm all out of faith, this is how I feel
                               Bb                         F
             I'm cold and I am shamed, lying naked on the floor 
                               C                      Dm
                Illusion never changed, into something real 
                                Bb                              F
             I'm wide awake and I can see, the perfect sky is torn
                              C                  Dm   C   Bb
             You're a little late, I'm already torn 



[Bridge]

             Dm  (C)  Bb       Dm            F         C
           Torn...             Ooooh...  Hoo ooooh...  Ooooh


[Pre Chorus 3]

                         Dm
                 There's nothing where he used to lie
                C
                 My inspiration has run dry
               Am
                 That's what's going on
               C
                 Nothing's right
                       F
                 I'm torn



[Chorus 3]

           F                    C                Dm
             I'm all out of faith, this is how I feel
                               Bb                         F
             I'm cold and I am shamed, lying naked on the floor 
                               C                      Dm
             Illusion never changed, into something real 
                                Bb                              F
             I'm wide awake and I can see, the perfect sky is torn
                                 C                Dm    
             I'm all out of faith, this is how I feel
                               Bb                              F
             I'm cold and I am shamed, bound and broken on the floor
                              C                  Dm   C   Bb
             You're a little late, I'm already torn 


[Outro]

          Dm   C
          Torn...  [much wailing]           

          Ooh...


[Outro/Solo]

e|------------|-10\5~~~~~--|------------|-10\5~~~~~--|
B|-6/13~~~~~--|------------|-6/13~~~~~--|------------|
G|------------|------------|------------|------------|
D|------------|------------|------------|------------|
A|------------|------------|------------|------------|
E|------------|------------|------------|------------|

e|------------|-10/13\10~\5~~--|-------------|-10\5~~~~~--|
B|-6/13~~~~~--|----------------|--6/13~~~~~--|------------|
G|------------|----------------|-------------|------------|
D|------------|----------------|-------------|------------|
A|------------|----------------|-------------|------------|
E|------------|----------------|-------------|------------|


************

~  Vibrato
/  Slide UP
\  Slide Down

************




*************************************************************************************************************


                        ---===<<< TORN >>>===---
                           Natalie  Imbruglia

This a Fantastic Song.  I have listenend to this track repeatedly and I 
feel that this is pretty close, I have limited knowledge of Chords, so 
the Build-Up is no doubt using Chords, If so, please contact me and tell 
me what they are.

Transcribed by Paul (PanMan) Nicholas -=<>=- paul@rigel.demon.co.uk



                                -=< Intro >=-

Guitar1 :  Plays the BarChord 'F' four times, using a heavy/slow pluck. 
           While Guitar 2, plays these 4 notes slowly.

      F          F         F          F

E|----8----|----------|----------|---------|
B|---------|----11----|----10----|----8----|
G|---------|----------|----------|---------|
D|---------|----------|----------|---------|
A|---------|----------|----------|---------|
E|---------|----------|----------|---------|


                                -=< Verse >=- 

"I thought I saw a man brought to life..."

          F
          
E|--------1--------|
B|--------1--------|
G|--------2--------|
D|--------3--------|
A|--------3--------|
E|--------1--------|

"He was warm, he came around like he was dignified..."

          Am
          
E|--------0--------|
B|--------1--------|
G|--------2--------|
D|--------2--------|
A|--------0--------|
E|--------0--------|

"He showed me what it was to cry."

          Bb
          
E|--------1--------|
B|--------3--------|
G|--------3--------|
D|--------3--------|
A|--------1--------|
E|--------1--------|


  F

   "Well you couldn't be that man I adored"

  Am                                                      Bb

   "You dont seem to know - Don't seem to care what your Heart is for"


   "...But I don't know him anymore."


                                -=< Build Up >=-


"theres nothing..." "My conversation" "Thats what..."  "Nothing's fine."

E|------------------|----------------|----------------|----------------|
B|--------------10--|-----------8----|---------5------|-----------8----|
G|----------10------|--------9-------|------5---------|--------9-------|
D|------12----------|------10--------|-----7----------|------10--------|
A|--12--------------|--10------------|--7-------------|--10------------|
E|------------------|----------------|----------------|----------------|


                                -=< Chorus >=- 

F                C
"Im all out of Faith"

                Dm
"This is how I feel"

                    Bb                         F
"I'm cold and I am shamed lying naked on the floor"

                   C
"Illusion never changed"

                 Dm
"Into something real"

                    Bb                            F
"I'm wide awake and I can see the perfect sky is Torn"

                  C                 Dm               Bb*(Slow/Hard strum
UP, let ring)
"You're a little late, I'm already Torn."


                                -=< Outro >=- 

       s                    s              s                s    s
E|---1-/ 8----------|----10-/--------|---1-/-8--------|--10-/-13-/-10--|
B|------------------|---------10-----|----------------|----------------|
G|------------------|----------------|----------------|----------------|
D|------------------|----------------|----------------|----------------|
A|------------------|----------------|----------------|----------------|
E|------------------|----------------|----------------|----------------|


comments
print report bad tab
40 comments total. Showing first comments.
+5 reply
goguz 18 wrote on May 30 2003, 12:00 am

good job man, but I'd like to say that this way sounds better:

EADGBE

Am: 577555
Bb7:688766 (I know, thats called Bb)
C: 335553
Dm: 557765

Good luck

-1 reply
Y_g_p_G 382 wrote on August 13 2004, 12:00 am

Awesome! Good job, dude!
One more thing - at the intro, instead of playing Gm, play Bb. The rest of it - excellent!

+2 reply
scrat-182 132 wrote on March 12 2006, 06:54 am

ace tab i know that this song is old and that but i just heared it on the radio just then and iv allways wanted to learn it and iv never got round to it before so thanks for the tab

I want to post or [tab]
guest
You may want to rate the tab now too:
select rating
Please do not post tabs as comments. Select "correction" instead!