Oops, an error
Loading. Please wait.

Hush Hush Bass Tab

613 views 1 this week
1 commentread comment
1 2 3 4 5
please rate
add to favorites
launch autoscroll
font size
0
reset
guitar tuner
Tab Pro tools
  • play this tab
  • loop segment
  • change instrument
  • show fretboard
  • metronome
×
Best way to learn
"Hush Hush"
Autoscroll
slow
fast
+/-
esc
set tempo
stop
Contributor
-------------------------------------------------------------------------------
			     Hush Hush - Natalie Portman's Shaved Head
                         http://www.myspace.com/natalieportmansshavedhead
                         http://www.natalieportmansshavedhead.blogspot.com/
-------------------------------------------------------------------------------

Tabbed By : Amberly

INTRO: (Count 8 beats)
G|-----------------------------------|
D|-5------------------------------3--|
A|----------1--------6--------3------|
E|-----------------------------------|

VERSE:
G|-----------------------------------|
D|-55555555--------------------3333--|
A|---------11111111666666663333------|  X2
E|-----------------------------------|

CHORUS: (yea, it's the same as the verse)
G|-----------------------------------|
D|-55555555--------------------3333--|
A|---------11111111666666663333------|  X2
E|-----------------------------------|

BREAK
VERSE: X2
CHORUS: X1

G|-----------------------------|
D|-55555555--------------------|
A|---------11111111666666663/--|
E|-----------------------------|

"KEEP IT ON THE DOWNLOW!!!"
G|------------------------------------|
D|----------444555--------------------|
A|----------------55--------555666----|  X4
E|-666666666--------66666666------33--|

"THERE'S A TRAIL..."
G|---------------------|
D|-5~------------------|
A|--------1~-------6~--|
E|---------------------|

2:23 (Right before chorus)
G|-------|
D|-------|
A|-5310--|
E|-------|

CHORUS: X4
INTRO: X1


| /  slide up
| \  slide down
| h  hammer-on
| p  pull-off
| ~  vibrato
| +  harmonic
| x  Mute note
===============================================================================
comments
We did not receive enough feedback on this tab! Please rate:
print report bad tab
1 2 3 4 5
1 comment total.
0 reply
DespairGirl wrote on March 21 2009, 10:31 pm

I messed up. At 2:23, it should say:

G|-------|
D|-------|
A|-5310--|
E|-------|

I want to post or [tab]
guest
You may want to rate the tab now too:
select rating
Please do not post tabs as comments. Select "correction" instead!