Oops, an error
Loading. Please wait.

Mouth Full Of Bones Bass Tab

257 views 1 this week
no commentswrite comment
1 2 3 4 5
please rate
add to favorites
launch autoscroll
font size
0
reset
guitar tuner
Autoscroll
slow
fast
+/-
esc
set tempo
stop
Help us to improve Ultimate-Guitar.com Take our survey!
×
Contributor
-------------------------------------------------------------------------------
			     Mouth Full of Bones - Natalie Portman's Shaved Head
-------------------------------------------------------------------------------

Tabbed By : Amberly F.

VERSE 1:
G|---5~-------|
D|-3----3-5~--|
A|------------| X4
E|------------|

CHORUS:
G|-------------------------------------------------------------------|
D|-------------------------------------------------------------------|
A|-6-6-6-6/--------6-6-6-6\8-8-8-8/-6-6-6-6/-------------------------|
E|---------3-3-3-3\-------------------------3-3-3-3/1-1-1-1\6-6/3-3--|

VERSE 2:
G|---5~--------5~-----------|
D|-3----3-5~-3----3-5~-3-3--|
A|--------------------------| X3
E|--------------------------|

CHORUS: X1

BREAKDOWN:
G|-------------------------------|
D|-------------------------------|
A|-3-3-3-33-6665-----------------| X4
E|---------------3-3-3-33-666-6--|

G|-------------------------------|
D|-------------------------------|
A|-6-6-6-6-6-665-----------------| X3
E|--------------6-3-3-3-3-3--66--|

G|---------------------------------|
D|---------------------------------|
A|---------------------------------|
E|-1-1-1-1-1-1111-6-6-6-6-3-3-3-3--|


PAUSE DURING: "I want to make you..."

DURING GUITAR SOLO:
G|--------------------------------------|
D|--------------------------------------|
A|-666------66555---33555---------------| X2
E|------888------666-----6666644433311--|

VERSE 1: X4

"If it's love"
G|--------------------------------------------------------|
D|--------------------------------------------------------|
A|-66666666----------66666666----------66666666-----------|
E|----------33333333----------33333333----------33333333--|

G|---------------------|
D|---------------------|
A|---------------------| X2
E|-11111111-6666-3333--|

G|---------------------|
D|---------------------|
A|---------------------| X2
E|-11111111-6666-3333--|


| /  slide up
| \  slide down
| h  hammer-on
| p  pull-off
| ~  vibrato
| +  harmonic
| x  Mute note
===================================================================
comments
We did not receive enough feedback on this tab! Please rate:
print report bad tab
1 2 3 4 5
I want to post or [tab]
guest
You may want to rate the tab now too:
select rating
Please do not post tabs as comments. Select "correction" instead!