Oops, an error
Loading. Please wait.

Surrender tab

943 views 30 this week
1 commentread comment
1 2 3 4 5
x 7
add to favorites
×
Save as Personal and add changes to this tab that will be seen only by you. Learn more ›
×
You can save this tab as Personal to edit and correct it or add notes. All changes will be seen only by you. Learn more »
launch autoscroll
font size
0
reset
how to read this tab
guitar tuner
edit
Autoscroll
slow
fast
+/-
esc
set tempo
stop
[Intro/Verse]

e|-----------------------------------------------------------------------------------------|
B|----6-----6------13-------13-------13-------13------8-----8-----9-----9-----9-----9------|
G|-----------------------------------------------------------------------------------------|
D|-----------------------------------------------------------------------------------------|
A|--4---4-4---4/11----11-11----11-11----11-11----11\6---6-6---6/8---8-8---8-8---8-8---8\4--|
E|-----------------------------------------------------------------------------------------|

played 2 times before the verse comes in, then two times throughout the verse


[Pre-Chorus]

e|--------------------------------------------|
B|----6-----6-----6-----6-----6------6--------|
G|--------------------------------------------|
D|--------------------------------------------|
A|--4---4-4---4-4---4-4---4-4----4-4----4-4---|
E|--------------------------------------------|


[Chorus]

e|-----------------------------------------------------------------------|
B|-----13-------13-------13-------14-------9------9------9------9--------|
G|-----------------------------------------------------------------------|       this is 
D|-----------------------------------------------------------------------|     played twice
A|--11----11-11----11-11----11/13-----13/8---8-8----8-8----8-8----8/11---|
E|-----------------------------------------------------------------------|

e|---------------------------------------------------------------------|
B|----4------4-----6-----6-----9-----9------9-----9------4-----4-------|
G|---------------------------------------------------------------------|
D|---------------------------------------------------------------------|
A|--3---3-3----3/4---4-4---4/8---8-8---8-8----8-8---8/3----3-3---3/4---|
E|---------------------------------------------------------------------|

e|-----------------------------------------------------------------------|
B|-----13-------13-------13-------14-------9------9------9------9--------|
G|-----------------------------------------------------------------------|       this is 
D|-----------------------------------------------------------------------|     played twice
A|--11----11-11----11-11----11/13-----13/8---8-8----8-8----8-8----8/11---|
E|-----------------------------------------------------------------------|


[Verse]

e|-----------------------------------------------------------------------------------------|
B|----6-----6------13-------13-------13-------13------8-----8-----9-----9-----9-----9------|
G|-----------------------------------------------------------------------------------------|
D|-----------------------------------------------------------------------------------------|
A|--4---4-4---4/11----11-11----11-11----11-11----11\6---6-6---6/8---8-8---8-8---8-8---8\4--|
E|-----------------------------------------------------------------------------------------|

this is played twice throughout the verse


[Pre-Chorus]

e|--------------------------------------------|
B|----6-----6-----6-----6-----6------6--------|
G|--------------------------------------------|
D|--------------------------------------------|
A|--4---4-4---4-4---4-4---4-4----4-4----4-4---|
E|--------------------------------------------|


[Chorus]

e|-----------------------------------------------------------------------|
B|-----13-------13-------13-------14-------9------9------9------9--------|
G|-----------------------------------------------------------------------|       this is 
D|-----------------------------------------------------------------------|     played twice
A|--11----11-11----11-11----11/13-----13/8---8-8----8-8----8-8----8/11---|
E|-----------------------------------------------------------------------|

e|---------------------------------------------------------------------|
B|----4------4-----6-----6-----9-----9------9-----9------4-----4-------|
G|---------------------------------------------------------------------|
D|---------------------------------------------------------------------|
A|--3---3-3----3/4---4-4---4/8---8-8---8-8----8-8---8/3----3-3---3/4---|
E|---------------------------------------------------------------------|

e|-------------------------------------------------------------------|
B|-----13-------13-------13-------14-------9------9------9------9----|
G|-------------------------------------------------------------------|       this is 
D|-------------------------------------------------------------------|     played twice
A|--11----11-11----11-11----11/13-----13/8---8-8----8-8----8-8-------|
E|-------------------------------------------------------------------| 


************************************

| /  Slide up
| \  Slide down

************************************
Suggest correction
Creating personal tab
Creating personal tab
You can edit any tab online and save it as your Personal.

You can edit, replace or remove any tab part or add personal notes – all changes will be seen only by you.

Personal tabs can be accessed anytime from any device, even offline.
Learn more »
comments
print report bad tab
1 comment total.
0 reply
sehero 20 Oct 26, 2016 07:05 PM

i wish you'd have added lyrics,but it's a great tab anyways!

guest
You may want to rate the tab now too:
select rating
Wanna post a correction for this tab? Suggest correction