Oops, an error
Loading. Please wait.

New Fbi Warning Song Bass Tab

177 views 1 this week
no commentswrite comment
1 2 3 4 5
please rate
add to favorites
launch autoscroll
font size
0
reset
guitar tuner
Tab Pro tools
  • play this tab
  • loop segment
  • change instrument
  • show fretboard
  • metronome
×
Best way to learn
"New Fbi Warning Song"
Autoscroll
slow
fast
+/-
esc
set tempo
stop
Contributor
Difficulty
novice
     communitychannel/natalie tran tab for her FBI warning song.
     heres the Link to the song: http://www.youtube.com/watch?v=jJhJ7y9int4.
and I know it has guitar lines but thats because I used my guitar to tab it but im sure 
doesnt matter if you us a a bass or guitar for this :)


          intro/chorus
     e-----------------------------------------------|
     B-----------------------------------------------|
     G-----------------------------------------------|
     D-----------------------------------------------|
     A----2-3-5-3-2-3-2-0-2-0------------------------|
     E--3---------------------0----------------------|
             and then repeat that until verse

       and the verse is

       ----------------------------------------------|
       ----------------------------------------------|
       ----------------------------------------------|
       ----------------------------------------------|
       ---------------3-------2----------------------|
       --0---3---8-----------------------------------|
                     and repeat this for verses
        im not sure about this part but its close.
        please rate and comment, no matter how bad I need to learn from it.
comments
We did not receive enough feedback on this tab! Please rate:
print report bad tab
1 2 3 4 5
I want to post or [tab]
guest
You may want to rate the tab now too:
select rating
Please do not post tabs as comments. Select "correction" instead!