Oops, an error
Loading. Please wait.

Rise From Zion tab

127 views 1 this week
no commentswrite comment
1 2 3 4 5
2 more votes to show rating
add to favorites
×
Save as Personal and add changes to this tab that will be seen only by you. Learn more ›
×
You can save this tab as Personal to edit and correct it or add notes. All changes will be seen only by you. Learn more »
launch autoscroll
font size
0
reset
how to read this tab
guitar tuner
edit
Autoscroll
slow
fast
+/-
esc
set tempo
stop
Author
Difficulty
-------------------------------------------------------------------------------
                             SONG NAME - Band Name
-------------------------------------------------------------------------------
Tabbed by:me
E-mail: n/a 

Tuning: standard 

intro:
e|---------------------------------------------------------------------------|
B|---------------------------------------------------------------------------|
G|---------------------------------------------------------------------------|
D|------9-9-7-9-10-9-7-9--7-----9-9-7-9-10-9-7--------9-9--9-10-9-7-9--7-----|
A|--7-7---------------------7-7----------------7--7-7------------------------|
E|---------------------------------------------------------------------------|

e|----------------------|
B|-------7-8-7----------|
G|-----9----------------| pause for verse then repeat intro
D|---9------------------|
A|-7--------------------|
E|----------------------|

C   D   (to lead into chorus)  

chorus:
C     G     D      Em     C     G     D  (REPEAT FOR WHOLE CHORUS)


Em  (palm mute)
Let your praises arise from zion...


then back to intro, verse, chorus and then intro 

thanks...


************************************

| /   slide up
| \   slide down
| h   hammer-on
| p   pull-off
| ~   vibrato
| +   harmonic
| x   Mute note
| b   Bend
| pb  Pre-bend
| br  Bend release
| pbr Pre-bend release
| brb Bend release bend

************************************
Suggest correction
Creating personal tab
Creating personal tab
You can edit any tab online and save it as your Personal.

You can edit, replace or remove any tab part or add personal notes – all changes will be seen only by you.

Personal tabs can be accessed anytime from any device, even offline.
Learn more »
Give kudos to tab author, rate the tab!
1 2 3 4 5
comments
print report bad tab
guest
You may want to rate the tab now too:
select rating
Wanna post a correction for this tab? Suggest correction