Oops, an error
Loading. Please wait.

Wasp tab

19 views 1 this week
no commentswrite comment
1 2 3 4 5
3 more votes to show rating
add to favorites
×
Save as Personal and add changes to this tab that will be seen only by you. Learn more ›
×
You can save this tab as Personal to edit and correct it or add notes. All changes will be seen only by you. Learn more »
launch autoscroll
font size
0
reset
how to read this tab
guitar tuner
edit
Autoscroll
slow
fast
+/-
esc
set tempo
stop
Tuning-C#G#C#FG#C#

Live Recording: Nathan Reich Sings, Wasp---Tabbed from https://www.youtube.com/watch?v=u_IyvccUm1s

Note in tabbing the strumming portions I simply showed the chord change above the lyric sung but did not  
include each strum. This is supplemented by the strumming pattern provided and also by viewing
the live recording. Enjoy!

[Intro]
C#|---------------------------------------------------------------|
G#|---------0---------------0--0-----------------------------0--0-|
F |--------1-1-0-------------0---------1----------------------0---|
C#|--------------------0-----------------0h2-2/~4-------0---------|
G#|----0h2---------0h2---0h2-------0h2--------------0h2---0h2-----|
C#|--0-----------0---------------0----------------0---------------|


C#|---------------------------------------------------------------|
G#|---------0---------------0--0--------0-------------------------|
F |--------1-1-0-------------0---------1-----------------0--------|
C#|--------------------0-----------------2-0------0-0-0-0---------|
G#|----0h2---------0h2---0h2-------0h2---------0h2----------------|
C#|--0-----------0---------------0-----------0--------------------|
   
[Verse]
C#|---------------------------------------------------------------|
G#|---------0---------------0--0-----------------------------0--0-|
F |--------1-1-0-------------0---------1----------------------0---|
C#|--------------------0-----------------0h2-2/~4-------0---------|
G#|----0h2---------0h2---0h2-------0h2--------------0h2---0h2-----|
C#|--0-----------0---------------0----------------0---------------|


C#|---------------------------------------------------------------|
G#|---------0---------------0--0--------0-------------------------|
F |--------1-1-0-------------0---------1-----------------0--------|
C#|--------------------0-----------------2-0------0-0-0-0---------|
G#|----0h2---------0h2---0h2-------0h2---------0h2----------------|
C#|--0-----------0---------------0-----------0--------------------|

Wasp on the redwood
Of your red house
Slowly washing
Blood from your mouth

C#|---------------------------------------------------------------|
G#|---------0---------------0--0-----------------------------0--0-|
F |--------1-1-3-------------0---------1----------------------0---|
C#|--------------------0-----------------0h2-2/~4-------0---------|
G#|----0h2---------0h2---0h2-------0h2--------------0h2---0h2-----|
C#|--0-----------0---------------0----------------0---------------|


C#|---------------------------------------------------------------|
G#|---------0---------------0--0--------0-------------------------|
F |--------1-1-0-------------0---------1--------------------------|
C#|--------------------0-----------------2-0------0-0-0-----------|
G#|----0h2---------0h2---0h2-------0h2---------0h2----------------|
C#|--0-----------0---------------0-----------0--------------------|

Isolated in your eden
Noone wonders
Why you're bleeding

[Strum pattern]: dud-du-u-u-u                   
                 1+2+3+1+2+3+
C#|-0-0-----|
G#|-0-0-----|
F |-0-0---0-|
C#|-0-0---2-|
G#|-0-0---2-|
C#|-0-0---2-|
    So  cover your eyes

C#|-----------0-|
G#|-----------0-|
F |-0---0-----0-|
C#|-2---2-----0-|
G#|-2---2-----0-|
C#|-2---2-----0-|
   You won't feel it

C#|-0----|
G#|-0----|
F |-0--0-|
C#|-0--2-|
G#|-0--2-|
C#|-0--2-|
    Swallow all your knives tonight

C#|-----------0---------0---0---0---0------|
G#|-----------0---------0---0---0---0------|
F |-0---0-----0---------0-0-0-0-0-1-0------|
C#|-2---2-----0---------0-2-0-2-0-2-0------|
G#|-2---2-----0---------0-2-0-2-0-2-0------|
C#|-2---2-----0---------0-2-0-2-0-0-0------|
   You won't feel it at all

[Interlude]
C#|---------------------------------------------------------------|
G#|---------0---------------0--0-----------------------------0--0-|
F |--------1-1-0-------------0---------1----------------------0---|
C#|--------------------0-----------------0h2-2/~4-------0---------|
G#|----0h2---------0h2---0h2-------0h2--------------0h2---0h2-----|
C#|--0-----------0---------------0----------------0---------------|


C#|--------------------------------------------------------------|
G#|---------0---------------0--0--------0------------------------|
F |--------1-1-0-------------0---------1-------------------------|
C#|--------------------0-----------------2-0------0-0-0-0--------|
G#|----0h2---------0h2---0h2-------0h2---------0h2---------------|
C#|--0-----------0---------------0-----------0-------------------|

[Verse]
C#|---------------------------------------------------------------|
G#|---------0---------------0--0-----------------------------0--0-|
F |--------1-1-0-------------0---------1----------------------0---|
C#|--------------------0-----------------0h2-2/~4-------0---------|
G#|----0h2---------0h2---0h2-------0h2--------------0h2---0h2-----|
C#|--0-----------0---------------0----------------0---------------|


C#|------------------------------------------|
G#|---------0---------------0--0--------0----|
F |--------1-1-0-------------0---------1-----|
C#|--------------------0-----------------2-0-|
G#|----0h2---------0h2---0h2-------0h2-------|
C#|--0-----------0---------------0-----------|
Wasp on the redwood
Of your red house
Slowly washing
Blood from your mouth



************************************

| h  Hammer-on
|    
| #  
| /~ 

************************************
Suggest correction
Creating personal tab
Creating personal tab
You can edit any tab online and save it as your Personal.

You can edit, replace or remove any tab part or add personal notes – all changes will be seen only by you.

Personal tabs can be accessed anytime from any device, even offline.
Learn more »
Give kudos to tab author, rate the tab!
1 2 3 4 5
comments
print report bad tab
guest
You may want to rate the tab now too:
select rating
Wanna post a correction for this tab? Suggest correction