Oops, an error
Loading. Please wait.

How To Win tab

874 views 9 this week
no commentswrite comment
1 2 3 4 5
1 last vote to show rating
add to favorites
×
Save as Personal and add changes to this tab that will be seen only by you. Learn more ›
×
You can save this tab as Personal to edit and correct it or add notes. All changes will be seen only by you. Learn more »
launch autoscroll
font size
0
reset
how to read this tab
guitar tuner
edit
Autoscroll
slow
fast
+/-
esc
set tempo
stop
-------------------------------------------------------------------------------
                             HOW TO WIN - Nathaniel Rateliff
-------------------------------------------------------------------------------
Tabbed by: Cyrus. T

Tuning: Open D

WATCH HIM PLAY THE SONG FOR REFERENCE
https://www.youtube.com/watch?v=S7cLZ3aaxYo

/ = slide

Intro and instrumental - repeat throughout
e|---0-0-0-0000-0-0-0000-----------------------------------------------------|
B|---0-0-0-0000-0-0-0000-----------------------------------------------------|
G|---5-5-5-5555-7-7-7787-----------------------------------------------------|
D|---0-0-0-0000-0-0-0000-----------------------------------------------------|
A|---0-0-0-0000-0-0-0000-----------------------------------------------------|
E|---5-5-5-5555-7-7-7777-----------------------------------------------------|


Verse
e|---------------------------------------------------------------------------|
B|---------------------------------------------------------------------------|
G|--5----------------4---------------12---------------------8----------------|
D|---------------------------------------------------------------------------|
A|---------------------------------------------------------------------------|
E|--5-5-5-5-5-5-5-5-5-5-5-5-5-5-5-5/12-12-12-12-12-12-12-12/9-9-9-9-9-9-9-9--|

For the outro play the same chords as done in the verse with the same strumming pattern as the intro
Very easy song once you watch him play it, have fun!


            
            
Suggest correction
Creating personal tab
Creating personal tab
You can edit any tab online and save it as your Personal.

You can edit, replace or remove any tab part or add personal notes – all changes will be seen only by you.

Personal tabs can be accessed anytime from any device, even offline.
Learn more »
Give kudos to tab author, rate the tab!
1 2 3 4 5
comments
print report bad tab
guest
You may want to rate the tab now too:
select rating
Wanna post a correction for this tab? Suggest correction