Oops, an error
Loading. Please wait.

Tabi No Tochuu bass

version 1
version 1

Whole song

Interactive

64 views 1 this week
no commentswrite comment
1 2 3 4 5
3 more votes to show rating
add to favorites
×
Save as Personal and add changes to this tab that will be seen only by you. Learn more ›
×
You can save this tab as Personal to edit and correct it or add notes. All changes will be seen only by you. Learn more »
launch autoscroll
font size
0
reset
guitar tuner
edit
Autoscroll
slow
fast
+/-
esc
set tempo
stop
Author
Intro 0:11
G|---------6-----------------------2-----------------------6-----------------------2---------------|
D|-------------------------------------------------------------------------------------------------|
A|-4----------47-----------0----------02-------2---4----------47-----------0----------02---7---6---|
E|-------------------------------------------------------------------------------------------------|
   1 + 2 + 3 + 1 + 2 + 3 + 1 + 2 + 3 + 1 + 2 + 3 + 1 + 2 + 3 + 1 + 2 + 3 + 1 + 2 + 3 + 1 + 2 + 3 + 

G|---------6-----------------------2---------------------------------------------------------------|
D|-------------------------------------------------------------------------------------------------|
A|-4----------47-----------0-----------------------------------------------------------------------|
E|-------------------------------------4---4---2---2---------------------/-14----------------------|
   1 + 2 + 3 + 1 + 2 + 3 + 1 + 2 + 3 + 1 + 2 + 3 + 1 + 2 + 3 + 1 + 2 + 3 + 1 + 2 + 3 + 1 + 2 + 3 + 

Verse 0:27
G|-------------------------------------------------------------------------------------------------|
D|/11--------------------------------------------/-9-----------------------------------------------|
A|---------------------11--12----------------------------------------------7-----------6-----------|
E|-------------------------------------------------------------------------------------------------|
   1 + 2 + 3 + 1 + 2 + 3 + 1 + 2 + 3 + 1 + 2 + 3 + 1 + 2 + 3 + 1 + 2 + 3 + 1 + 2 + 3 + 1 + 2 + 3 + 

G|---------------------------------------------------------------------8---9-----------8-----------|
D|---------------------6---7---------------------/-9-----------------------9-------------------6---|
A|-4---------------4-----------------------------------------------------------------------6-------|
E|-------------------------------------------------------------------------------------------------|
   1 + 2 + 3 + 1 + 2 + 3 + 1 + 2 + 3 + 1 + 2 + 3 + 1 + 2 + 3 + 1 + 2 + 3 + 1 + 2 + 3 + 1 + 2 + 3 + 

0:44
G|-------------------------------------------------------------------------------------------------|
D|---------------------6---7---------------------------------------------------9-------------------|
A|-4---------------4-------7-------------------------------------------6---7-------7---6-----------|
E|-------------------------------------------------7-----------------------------------------------|
   1 + 2 + 3 + 1 + 2 + 3 + 1 + 2 + 3 + 1 + 2 + 3 + 1 + 2 + 3 + 1 + 2 + 3 + 1 + 2 + 3 + 1 + 2 + 3 + 

G|-------------------------------------------------------------------------------------------------|
D|---------------------6---------------------------------------------------------------------------|
A|-4---------------4-------0-------------------------------------------6---7-----------6-----------|
E|-----------------------------------------------/-7-----------------------------------------------|
   1 + 2 + 3 + 1 + 2 + 3 + 1 + 2 + 3 + 1 + 2 + 3 + 1 + 2 + 3 + 1 + 2 + 3 + 1 + 2 + 3 + 1 + 2 + 3 + 

Pre Chorus 1:01
G|-------------6-----------------------------------------------------------------------------------|
D|------------------------------------/6---6---6---------------------------------------------------|
A|-4-------------------------------------------------------------------6---7-----------6-----------|
E|-------------------------4-----------------------5-------------------------------------------4---|
   1 + 2 + 3 + 1 + 2 + 3 + 1 + 2 + 3 + 1 + 2 + 3 + 1 + 2 + 3 + 1 + 2 + 3 + 1 + 2 + 3 + 1 + 2 + 3 + 

G|-------------6-----------------------------------------------------------------------------------|
D|-------------------------------------------------------------------------------------4-------4---|
A|-4-------------------4-----------------------------------------------6---7-----------------------|
E|-------------------------4-------4---4---4---4---5-----------5---7-------------------------------|
   1 + 2 + 3 + 1 + 2 + 3 + 1 + 2 + 3 + 1 + 2 + 3 + 1 + 2 + 3 + 1 + 2 + 3 + 1 + 2 + 3 + 1 + 2 + 3 + 

G|-------------------------|
D|-------------------------|
A|-6-------6-----------6---|
E|-------------4---4-------|
   1 + 2 + 3 + 1 + 2 + 3 + 

Chorus 1:20
G|-------------------------------------------------------------------------------------------------|
D|------------------------------------/11--11--11----------8---8-----------------------------------|
A|-4-------4---4-----------2-------2---------------------------------------------------------------|
E|-------------------------------------------------6-----------------------5---5---5---5---7---5---|
   1 + 2 + 3 + 1 + 2 + 3 + 1 + 2 + 3 + 1 + 2 + 3 + 1 + 2 + 3 + 1 + 2 + 3 + 1 + 2 + 3 + 1 + 2 + 3 + 

G|-------------------------------------------------------------------------------------------------|
D|---------4---4-----------------------------------------------------------------------6-----------|
A|-----------------------/-7-------------------7---6---6---6---6---6---6-----------6-----------6---|
E|-2-----------------------------------------------------------------------4-----------------------|
   1 + 2 + 3 + 1 + 2 + 3 + 1 + 2 + 3 + 1 + 2 + 3 + 1 + 2 + 3 + 1 + 2 + 3 + 1 + 2 + 3 + 1 + 2 + 3 + 

1:37
G|-------------------------------------------------------------------------------------------------|
D|-----------------6-------------------9-----------------------8---8---8---------------------------|
A|-4-------4---4-------4-------------------9-------------------------------------------------------|
E|-------------------------7---7---7-----------7---6-------6---------------5-------5---5---5---4---|
   1 + 2 + 3 + 1 + 2 + 3 + 1 + 2 + 3 + 1 + 2 + 3 + 1 + 2 + 3 + 1 + 2 + 3 + 1 + 2 + 3 + 1 + 2 + 3 + 

G|-------------------------------------------------------------------------------------------------|
D|-------------4-----------------------------------------------------------------------4---4---4---|
A|-----------------------/-7-------7---7-------7---6-------6---------------4---4---4---------------|
E|-2-------2---------------------------------------------------4---4---4---------------------------|
   1 + 2 + 3 + 1 + 2 + 3 + 1 + 2 + 3 + 1 + 2 + 3 + 1 + 2 + 3 + 1 + 2 + 3 + 1 + 2 + 3 + 1 + 2 + 3 + 

Interlude 1:53
G|---------6-----------------------2-----------------------6-----------------------2---------------|
D|---------------------------------------------4---------------------------------------------------|
A|-4------4---47-----------0------0---02-----------4------4---47-------7---0------0----2---7---6---|
E|-------------------------------------------------------------------------------------------------|
   1 + 2 + 3 + 1 + 2 + 3 + 1 + 2 + 3 + 1 + 2 + 3 + 1 + 2 + 3 + 1 + 2 + 3 + 1 + 2 + 3 + 1 + 2 + 3 + 

G|---------6-----------------------2---------------------------------------------------------------|
D|-----------------------------------------------------------------------------------/-16----------|
A|-4-----4----47---7---7---0------0----------------------------------------------------------------|
E|-------------------------------------4---4---2---2---------------------/-14----------------------|
   1 + 2 + 3 + 1 + 2 + 3 + 1 + 2 + 3 + 1 + 2 + 3 + 1 + 2 + 3 + 1 + 2 + 3 + 1 + 2 + 3 + 1 + 2 + 3 + 

Verse 2:10
G|-------------------------------------------------------------------------------------------------|
D|---------------------6---7-----------7-----------9---------------------------9-------------------|
A|-4-----------------------7-------------------------------------------6---7-------7---6-------6---|
E|-------------------------------------------------------------------------------------------------|
   1 + 2 + 3 + 1 + 2 + 3 + 1 + 2 + 3 + 1 + 2 + 3 + 1 + 2 + 3 + 1 + 2 + 3 + 1 + 2 + 3 + 1 + 2 + 3 + 

G|-----------/-13----------------------------------------------------------------------------------|
D|-------------------------------------------------------------------------------------------------|
A|-4---------------4-------------------------------------------7---6-------7---------/-11--11--11--|
E|---------------------4---5-----------------------7-------------------7---------------------------|
   1 + 2 + 3 + 1 + 2 + 3 + 1 + 2 + 3 + 1 + 2 + 3 + 1 + 2 + 3 + 1 + 2 + 3 + 1 + 2 + 3 + 1 + 2 + 3 + 

Pre Chorus 2:26
G|---------6---6-----------------------------------------------------------------------------------|
D|-------------------------------------6-----------------------------------------------------------|
A|-4-------------------4-----------------------------------------------6---7---7---7---6-----------|
E|-------------------------4-------4---------------5---------------7-------------------------------|
   1 + 2 + 3 + 1 + 2 + 3 + 1 + 2 + 3 + 1 + 2 + 3 + 1 + 2 + 3 + 1 + 2 + 3 + 1 + 2 + 3 + 1 + 2 + 3 + 

G|-------------6-----------------------------------------------------------------------------------|
D|---------6-------------------------/-6-----------------------------------------------------------|
A|-4-------------------4-----------------------------------------------6---7---7---7--89---9---9---|
E|-------------------------4-------4---------------5-------5-------5-------------------------------|
   1 + 2 + 3 + 1 + 2 + 3 + 1 + 2 + 3 + 1 + 2 + 3 + 1 + 2 + 3 + 1 + 2 + 3 + 1 + 2 + 3 + 1 + 2 + 3 + 

G|-------------------------|
D|---------------------6-/-|
A|-6---6---6---------------|
E|-------------4---4-------|
   1 + 2 + 3 + 1 + 2 + 3 + 

Bridge 2:45
G|-------------------------8-----------8---9---11--9-----------8-------11--9-----------9---8-------|
D|/11------------------------------------------------------------------------------------------9---|
A|-------------------------------------------------------------------------------------------------|
E|-------------------------------------------------------------------------------------------------|
   1 + 2 + 3 + 1 + 2 + 3 + 1 + 2 + 3 + 1 + 2 + 3 + 1 + 2 + 3 + 1 + 2 + 3 + 1 + 2 + 3 + 1 + 2 + 3 + 

G|-------------------------------------------------------------8-----------9-------9---9---8-------|
D|-7-------------------7---9-------------------9---11------------------------------------------9---|
A|-------------------------------------------------------------------------------------------------|
E|-------------------------------------------------------------------------------------------------|
   1 + 2 + 3 + 1 + 2 + 3 + 1 + 2 + 3 + 1 + 2 + 3 + 1 + 2 + 3 + 1 + 2 + 3 + 1 + 2 + 3 + 1 + 2 + 3 + 

3:02
G|-------------------------------------------------------------------------------------------------|
D|-------------------------------------------------------------------------------------4---4---4---|
A|-0-------0---0---0---0---2-------2---2---2---2---4-------4---6-------6---7-------7---------------|
E|-------------------------------------------------------------------------------------------------|
   1 + 2 + 3 + 1 + 2 + 3 + 1 + 2 + 3 + 1 + 2 + 3 + 1 + 2 + 3 + 1 + 2 + 3 + 1 + 2 + 3 + 1 + 2 + 3 + 

G|-------------------------------------------------------------------------------------------------|
D|-6-------6---6-------6---------------------------------------------------------------------------|
A|-------------------------------------------------------------------------------------------------|
E|-------------------------4-------4---4-----------1---1---1---1---1---1---6---6---6---6---6---6---|
   1 + 2 + 3 + 1 + 2 + 3 + 1 + 2 + 3 + 1 + 2 + 3 + 1 + 2 + 3 + 1 + 2 + 3 + 1 + 2 + 3 + 1 + 2 + 3 + 

Chorus 3:18
G|-------------------------------------------------------------5-------5---------------------------|
D|-----------------------------------------------------------------------------------------4-------|
A|-6-------6---6-------6---4-------4---4-------4---3-------3---------------2-------2---2-------2---|
E|-------------------------------------------------------------------------------------------------|
   1 + 2 + 3 + 1 + 2 + 3 + 1 + 2 + 3 + 1 + 2 + 3 + 1 + 2 + 3 + 1 + 2 + 3 + 1 + 2 + 3 + 1 + 2 + 3 + 

G|-------------------------------------------------------------------------------------------------|
D|-------------6-----------------------4-----------------------------------------------8-----------|
A|-------------------------------------------------------------------------------------------------|
E|-4-------4-----------4---2-------2-----------2---1-------1-------1---4---6-------6-------6---6---|
   1 + 2 + 3 + 1 + 2 + 3 + 1 + 2 + 3 + 1 + 2 + 3 + 1 + 2 + 3 + 1 + 2 + 3 + 1 + 2 + 3 + 1 + 2 + 3 + 

3:36
G|-------------8-----------------------6---------------------------5-------------------------------|
D|-------------------------------------------------------------4h5---------------------------------|
A|-6-------6-------6---6---4-------4-------4---4---3-------3-----------3---2-------2---2---2---1---|
E|-------------------------------------------------------------------------------------------------|
   1 + 2 + 3 + 1 + 2 + 3 + 1 + 2 + 3 + 1 + 2 + 3 + 1 + 2 + 3 + 1 + 2 + 3 + 1 + 2 + 3 + 1 + 2 + 3 + 

G|-------------------------------------------------------------------------------------------------|
D|-------------6-----------------------4-----------------------------------------------------------|
A|-------------------------------------------------------------------------6---6---6---------------|
E|-4-------4-----------4---2-------2-----------2---1-------1-/-6---6---6---------------4---4---4---|
   1 + 2 + 3 + 1 + 2 + 3 + 1 + 2 + 3 + 1 + 2 + 3 + 1 + 2 + 3 + 1 + 2 + 3 + 1 + 2 + 3 + 1 + 2 + 3 + 

Outro 3:52
G|-------------------------------------------------------------------------------------------------|
D|-------------------------------------------------------------------------------------------------|
A|-6-------6---6---6---6---4-------4---4-------4---3---3---3---3---3---3---2---2---2---2---2---1---|
E|-------------------------------------------------------------------------------------------------|
   1 + 2 + 3 + 1 + 2 + 3 + 1 + 2 + 3 + 1 + 2 + 3 + 1 + 2 + 3 + 1 + 2 + 3 + 1 + 2 + 3 + 1 + 2 + 3 + 

G|-------------------------------------------------------------------------------------8---7-------|
D|-------------6-----------------------4-----------------------------------8-------8-----------8---|
A|-----------------------------------------------------------------------------8-------------------|
E|-4-------4-----------4---2-------2-----------2---1-------1---1-------4---------------------------|
   1 + 2 + 3 + 1 + 2 + 3 + 1 + 2 + 3 + 1 + 2 + 3 + 1 + 2 + 3 + 1 + 2 + 3 + 1 + 2 + 3 + 1 + 2 + 3 + 

4:09
G|-------------------------------------------------------------------------------------------------|
D|-----------------------------------------------------------------------------------------4-------|
A|-6-------6---6---6---6---4-------4---4-------4---3-------3---3-------3---2---2---2---2-------2---|
E|-------------------------------------------------------------------------------------------------|
   1 + 2 + 3 + 1 + 2 + 3 + 1 + 2 + 3 + 1 + 2 + 3 + 1 + 2 + 3 + 1 + 2 + 3 + 1 + 2 + 3 + 1 + 2 + 3 + 

G|-------------------------------------------------------------------------------------------------|
D|---------6---6---6---6---------------4---4---4---------------------------------------6---6---6---|
A|-------------------------------------------------------------------------6---6---6---------------|
E|-4-----------------------2-------2---------------1-------1-/-6-------6---------------------------|
   1 + 2 + 3 + 1 + 2 + 3 + 1 + 2 + 3 + 1 + 2 + 3 + 1 + 2 + 3 + 1 + 2 + 3 + 1 + 2 + 3 + 1 + 2 + 3 + 

4:26
G|-------------------------------------------------------------------------------------------------|
D|-------------4---4---4---------------------------------------4---4---4-------------------4---3---|
A|-6---6---6---------------2---2---2---4---4---4---6---6---6---------------2-------2---4-----------|
E|--------------------------------------------------------6---6------------------------------------|
   1 + 2 + 3 + 1 + 2 + 3 + 1 + 2 + 3 + 1 + 2 + 3 + 1 + 2 + 3 + 1 + 2 + 3 + 1 + 2 + 3 + 1 + 2 + 3 + 

G|-------------------------------------------------------------------------------------------------|
D|-------------4---4---4---------------------------------------------------------------------------|
A|-6---6---6---------------2-------2--------------------------------------------------------------|
E|----6---6---6------------------------6---6---4---4-----------------------------------------------|
   1 + 2 + 3 + 1 + 2 + 3 + 1 + 2 + 3 + 1 + 2 + 3 + 1 + 2 + 3 + 1 + 2 + 3 + 1 + 2 + 3 + 1 + 2 + 3 + 
Tabbed by Dave Vucko

            
            
Suggest correction
Creating personal tab
Creating personal tab
You can edit any tab online and save it as your Personal.

You can edit, replace or remove any tab part or add personal notes – all changes will be seen only by you.

Personal tabs can be accessed anytime from any device, even offline.
Learn more »
Give kudos to tab author, rate the tab!
1 2 3 4 5
comments
print report bad tab
guest
You may want to rate the tab now too:
select rating
Wanna post a correction for this tab? Suggest correction