Oops, an error
Loading. Please wait.

Tabi No Tochuu Acoustic chords

version 4
version 4

Whole song

Interactive

424 views 3 this week
no commentswrite comment
1 2 3 4 5
3 more votes to show rating
add to favorites
×
Save as Personal and add changes to this tab that will be seen only by you. Learn more ›
×
You can save this tab as Personal to edit and correct it or add notes. All changes will be seen only by you. Learn more »
launch autoscroll
font size
0
reset
transpose
0
reset
simplify chords
display chords
guitar tuner
edit
Autoscroll
slow
fast
+/-
esc
set tempo
stop
Author
Strumming
There is no strumming pattern for this song yet. and get +5 IQ
Natsumi Kiyoura "Tabi no Tochuu"  live acoustic version

   C#sus2 E  Asus2 Bsus2 F# Bsus4  B    G#   A   C#m   A#  G#m  D#m
e:---4----0----0----2----2----2----2----4----0----4----6----4----6---|
B:---4----0----0----2----2----5----4----4----2----5----6----4----7---|
G:---6----1----2----4----3----4----4----5----2----6----7----4----8---|
D:---6----2----2----4----4----4----4----6----2----6----8----6----8---|
A:---4----2----0----2----4----2----2----6----0----4----8----6----6---|
E:--------0--------------2--------------4--------------6----4--------|

(Intro)

C#sus2 E Asus2 Bsus2
C#sus2 E Asus2 Bsus2 
C#sus2 E Asus2 Bsus2 F# 

(Verse)

     C#sus2     Asus2 Bsus4   B    E  F#
Tada hitori Mayoikomu tabi no naka de
     C#sus2     Asus2 Bsus4   B    E  F#
Kokoro dake samayotte tachitsukushita
     C#sus2     Asus2  Bsus4 B   E    F#
Demo ima wa tooku made Arukidaseru
     C#sus2      Asus2   Bsus4 B   E  F#
Sou kimi to kono michi de Deatte kara

C#sus2         Asus2   Bsus4         E  F#
Tabibito-tachi ga utau mishiranu uta mo
      C#sus2      Asus2      Bsus4            E F# G#
Natsukashiku kikoete kuru yo tada kimi to iru to

(Chorus)

    C#sus2   E        Bsus2     Asus2
Yumemita sekai ga dokoka ni aru nara
    F#m       E          Bsus2 G# C#sus2
Sagashi ni yukou ka kaze no mukou e
   C#sus2    E        Bsus2  Asus2
Itetsuku yoake no kawaita mahiru no
    F#m     E         Bsus2 G#    C#sus2    
Furueru yamiyo no Hate o mi ni yukou

C#sus2 E Asus2 Bsus2
C#sus2 E Asus2 Bsus2 F#  
 
(Verse)

    C#sus2      Asus2  Bsus4   B   E  F#
Sabishisa o shitte iru Kimi no hitomi
     C#sus2    Asus2 Bsus4 B   E  F#
Mabataite sono iro o Utsusu kara

C#sus2         Asus2   Bsus4          E  F#
Takaku sora made tonde Mikkazuki ni naru
     C#sus2      Asus2      Bsus4          E F# G#
Hakka-iro no hoshi wa kitto Namida no kakera

(Bridge)

C#sus2          B               C#m B E
Higashi no kuni no minato nishi no umibe
A              B              C#m B   E
Kurai mori de minami no machi kin no tou
A              B             C#m B  E  F# G#
Kita no oka mizu ni yureteta onaji tsuki ga

D#m A#  

(Chorus)

     D#m       F#        G#m     B   
Sashidasu sono te o tsunaide ii nara                                    
     G#m      F#        G#m       A#                               
Doko made yukou ka Kimi to futari de                                  
    D#m       F#         G#m      B                                         
Doko e mo yukeru yo Mada minu sekai no                                     
    G#m      F#      G#m   A#   D#m                                    
Zawameki kaori o Dakishime ni yukou   

(after the D#m's play F# like this: - 9 11 11 11 9)      

 (Vocal Melody)

 Tada hitori Mayoikomu tabi no naka de Kokoro dake samayotte tachitsukushita
-------------------------------------|--------------------------------------|
---4--6-7-6----4-5-7-5-5-5--5--4-----|---4-6--7-6----4-5-7-5-5-5--5--4----5-|
-6-----------6-------------------4---|-6-----------6-------------------4----|
-----------------------------------6-|--------------------------------------|
-------------------------------------|--------------------------------------|
-------------------------------------|--------------------------------------|

 Demo ima wa tooku made Arukidaseru    Sou kimi to kono michi de Deatte kara
-------------------------------------|--------------------------------------|
---4--6-7-6----4-5-7-5--5-5-5-4------|---4-6-7--6----4--5-7---5--5-5-4----5-|
-6-----------6------------------4----|-6-----------6--------------------4---|
---------------------------------6---|--------------------------------------|
-------------------------------------|--------------------------------------|
-------------------------------------|--------------------------------------|

 Tabibito-tachi ga utau mishiranu uta mo  Natsukashiku kikoete kuru yo tada kimi to iru to
-4-4-4-4--2-------------2-0-------------|-0-2--4-4--4--4-2-0-----------0-2--0--------5--4-|
------------5---4--4-2-4-----4-2--4-----|--------------------4-4-2--4---------4--2--5-----|
-----------------------------------4--1-|-------------------------------------------------|
----------------------------------------|-------------------------------------------------|
----------------------------------------|-------------------------------------------------|
----------------------------------------|-------------------------------------------------|

 Yumemita sekai ga dokoka ni aru nara     Sagashi ni yukou ka kaze no mukou e
-----------------------4--2---0--4-2----|-4-5-9---7----2-5-4----0--4--2-5-4----|
-----4--------4-2--4-5-------2----------|------------4--------2-------------4--|
-5-6---6--5-6---------------------------|--------------------------------------|
----------------------------------------|--------------------------------------|
----------------------------------------|--------------------------------------|
----------------------------------------|--------------------------------------|

 Itetsuku yoake no kawaita mahiru no      Furueru yamiyo no Hate wo mi ni yukou
-----------------------4-2---0-4--2-----|-4-5-9-7---2-5--4----0--4--2--5--4----|
----4--------4--2--4-5-----2------------|---------4---------2---------------2--|
-5-6---6--5-6---------------------------|--------------------------------------|
----------------------------------------|--------------------------------------|
----------------------------------------|--------------------------------------|
----------------------------------------|--------------------------------------|
                                    

            
            
Suggest correction
Creating personal tab
Creating personal tab
You can edit any tab online and save it as your Personal.

You can edit, replace or remove any tab part or add personal notes – all changes will be seen only by you.

Personal tabs can be accessed anytime from any device, even offline.
Learn more »
Give kudos to tab author, rate the tab!
1 2 3 4 5
comments
print report bad tab
guest
You may want to rate the tab now too:
select rating
Wanna post a correction for this tab? Suggest correction