Oops, an error
Loading. Please wait.

To You tab

688 views 1 this week
1 commentread comment
1 2 3 4 5
3 more votes to show rating
add to favorites
×
Save as Personal and add changes to this tab that will be seen only by you. Learn more ›
×
You can save this tab as Personal to edit and correct it or add notes. All changes will be seen only by you. Learn more »
launch autoscroll
font size
0
reset
how to read this tab
guitar tuner
edit
Autoscroll
slow
fast
+/-
esc
set tempo
stop
Author
Difficulty
-------------------------------------------------------------------------------
                             To You by Nature & Organisation
-------------------------------------------------------------------------------
Tabbed by: Benny Oreel
E-mail:benny.oreel@telenet.be
Link: https://myspace.com/natureandorganisation

Tuning: Standard/Play with kapo on 3rd bar

e|-----4---4------4---4----------4---------4---- 4---------------------------|
B|-------5---5------5---5----4-----4---4-----4-- --4-3-----------------------|
G|-----------------------------4---------4------ ----------------------------|
D|---------------------------------------------- ---------3------5-----------|
A|--4----------4-------------------------------- -------5------5-------------|
E|------------------------4----------4---------- ------------3---------------|

After hitting the last note, immediately start the first again.  The space/interruption
in the bars is intentionally...The 3 first lines of text are accompanied by the note
before the interruption, the last line is accompanied by the notes behind the
space...repeat for the next verses. At the end of the song, before the last 2 lines of 
text a second
guitar joins in, but if you practice by yourself, just repeat the sequence again.
Enjoy!!

Lyrics:

I'd lie down in darkness with devils
And awaken with strangers that I never knew
I'd follow the hoofbeats of heartache
If I thought they'd lead me to you

There's so little magic in morning
Butterflies in your eyes and a tear drop or two
I'd run through the dawning with danger
If I could be running to you

If I cry down to God in the morning
'Who am I? Where am I? Why am I still alone?'
He'd probably show me a highway
Leading to you and to home

There's so little magic in midnight
Fireflies in your eyes and a sparkle or two
I'd dance through the darkness with danger
If I could be dancing to you

If love gives you life or takes lifetime
I'll give love or take love to you
Suggest correction
Creating personal tab
Creating personal tab
You can edit any tab online and save it as your Personal.

You can edit, replace or remove any tab part or add personal notes – all changes will be seen only by you.

Personal tabs can be accessed anytime from any device, even offline.
Learn more »
Give kudos to tab author, rate the tab!
1 2 3 4 5
comments
print report bad tab
1 comment total.
0 reply
BennyOreel 52 Jul 02, 2013 10:32 AM

Dear tabteam,

I recently posted this tab, but made a mistake somewhere (unfortunately noticed it just after posting) This is the correct tab for this song:

Tuning: Standard/Play with kapo on 3rd bar

e|-----3---3------3---3----------3---------3----3-----------------------
B|-------4---4------4---4----3-----3---3-----3----4-3-------------------
G|-----------------------------3---------3------------------------------
D|-------------------------------------------------------3------5-------
A|--4----------4---------------------------------------5------5---------
E|------------------------3----------3----------------------3-----------

Thank you for replacing,

benny

guest
You may want to rate the tab now too:
select rating
Wanna post a correction for this tab? Suggest correction