Oops, an error
Loading. Please wait.

Electrodes Tab

543 views 1 this week
no commentswrite comment
1 2 3 4 5
please rate
add to favorites
launch autoscroll
font size
0
reset
how to read this tab
guitar tuner
Tab Pro tools
  • play this tab
  • loop segment
  • change instrument
  • show fretboard
  • metronome
×
Best way to learn
"Electrodes"
Autoscroll
slow
fast
+/-
esc
set tempo
stop
Difficulty
novice
b = bend

Verse
E|---------------------------------------------|
B|-----------------222-2--4-4-4-4-4-4-4-4------|
G| ----------------555b5b-7b7b7b7b7b7b7b7b-----|
D| -7777--5-7-8888-----------------------------|
A| -5555--3-5-6666-----------------------------|
E| --------------------------------------------|

Bridge
E| -----------------------------------|
B| -----------------------------------|
G| -----------------------------------|
D| --5--7--10--12-14-15---------------|
A| --3--5--8---10-12-13---------------|
E| -----------------------------------|

Chorus
E| -----------------------------------|
B| -----------------------------------|
G| --77--88--1010--88--77--88--1010-8-|
D| --77--88--1010--88--77--88--1010-8-|
A| --55--66--8-8---66--55--66--8-8--6-|
E| -----------------------------------|

Verse
E|---------------------------------------------|
B|-----------------222-2--4-4-4-4-4-4-4-4------|
G| ----------------555b5b-7b7b7b7b7b7b7b7b-----|
D| -7777--5-7-8888-----------------------------|
A| -5555--3-5-6666-----------------------------|
E| --------------------------------------------|

Bridge
E| -----------------------------------|
B| -----------------------------------|
G| -----------------------------------|
D| --5--7--10--12-14-15---------------|
A| --3--5--8---10-12-13---------------|
E| -----------------------------------|

Chorus
E| -----------------------------------|
B| -----------------------------------|
G| --77--88--1010--88--77--88--1010-8-|
D| --77--88--1010--88--77--88--1010-8-|
A| --55--66--8-8---66--55--66--8-8--6-|
E| -----------------------------------|

Riff 1 during and after solo
E| ---------------------------------------------------------------|
B| ---------------------------------------------------------------|
G| -----------------------13-12-----------------------13-12-------|
D| ---12-12-12-12-12-12---13-12---12-12-12-12-12-12---13-12-------|
A| ---12-12-12-12-12-12---11-10---12-12-12-12-12-12---11-10-------|
E| ---10-10-10-10-10-10-----------10-10-10-10-10-10---------------|

Riff 2
E| ----------------------------------------------------|
B| ----------------------------------------------------|
G| ------13-----------------------13-------------------|
D| ---12-13---13-13-13-13----12-13---------------------|
A| ---12-11---13-13-13-13----12-11--13-13-13-13--------|
E| ---10------11-11-11-11----10-----11-11-11-11--------|


Verse
E|---------------------------------------------|
B|-----------------222-2--4-4-4-4-4-4-4-4------|
G| ----------------555b5b-7b7b7b7b7b7b7b7b-----|
D| -7777--5-7-8888-----------------------------|
A| -5555--3-5-6666-----------------------------|
E| --------------------------------------------|


Bridge
E| -----------------------------------|
B| -----------------------------------|
G| -----------------------------------|
D| --5--7--10--12-14-15---------------|
A| --3--5--8---10-12-13---------------|
E| -----------------------------------|

Chorus
E| -----------------------------------|
B| -----------------------------------|
G| --77--88--1010--88--77--88--1010-8-|
D| --77--88--1010--88--77--88--1010-8-|
A| --55--66--8-8---66--55--66--8-8--6-|
E| -----------------------------------|
comments
We did not receive enough feedback on this tab! Please rate:
print report bad tab
1 2 3 4 5
I want to post or [tab]
guest
You may want to rate the tab now too:
select rating
Please do not post tabs as comments. Select "correction" instead!