Oops, an error
Loading. Please wait.

Noches De Bohemia tab

1,393 views 1 this week
1 commentread comment
1 2 3 4 5
3 more votes to show rating
add to favorites
×
Save as Personal and add changes to this tab that will be seen only by you. Learn more ›
×
You can save this tab as Personal to edit and correct it or add notes. All changes will be seen only by you. Learn more »
launch autoscroll
font size
0
reset
how to read this tab
guitar tuner
edit
Autoscroll
slow
fast
+/-
esc
set tempo
stop
NAVAJITA PLATEA (Noches de Bohemia)
Acordes:
Re: 000232
Fa#m: 244222
Sol: 320003
La7: 002020
Fa#: 244322
Sim: 224432
Sol7: 353433
Fa#7: 242322
La: 002220

INTRO: 2 veces

      (RE)              (FA#m)           (SOL)               (SIm)   <--- 2ª guitarra

                       * *                    * *                     *      
e |----2-----------5-3-2----------      |---------3-2-0----------      |--------------------------------      |
B |----3-----3--5---------5--3---      |2~~~-2-3-----3-2-------      |0---0-2h3p2-0-------------------      |
G |----2-------------------------      |------------------------      |0---------------3-0-------------      |
D |------------------------------      |------------------------      |-------------------4-2-0--------      | 
A |------------------------------      |------------------------      |--------------------------------      |
E |------------------------------      |2-----------------------      |3-------------------------------      | 

 
RE                      FA#m
Noches de bohemia y de ilusion
            SOL
yo no me doy a la razón
          LA7              RE
tú como te olvidaste de eso
      RE            FA#m
Busco y no encuentro una explicación
      SOL
solo LA desilusión
      LA7              RE        FA#  SIm 
de qué falsos fueron tus besos


SIm                    LA            SIm
Yo ya no sé cómo olvidarte, e-e-e-e-eeeh
                   LA
como arrancarte de mis adentros
FA#            SOL7
desde que te marchaste 
             FA#7
mi vida es un tormento


SIm                 LA             SIm
Yo ya no quiero recordarte, e e e e eeeh
                 LA
ni siquiera ni un momento
FA#            SOL7
pero llevo tu imagen
             FA#7
graba en mi pensamiento


RE                      FA#m
Noches de bohemia y de ilusión
            SOL
yo no me doy a la razón
          LA7              RE
tu como te olvidaste de eso
      
Intro: 1 vez

SIm               LA               SIm      
Yo quiero vivir distante, e e e e eeeh
                   LA
de todo aquello que era nuestro
FA#            SOL7
pero el aire me trae
           FA#7
aromas de recuerdo


SIm               LA               SIm      
No me pidas que me calle, e e e e eeeh
                 LA
tu no sabes lo que siento
FA#            SOL7
me has hecho una herida
           FA#7
en mi sentimiento


RE                      FA#m
Noches de bohemia y de ilusión
            SOL
yo no me doy a la razón
          LA7              RE
tu como te olvidaste de eso
      RE            FA#m
Busco y no encuentro una explicación
      SOL
solo LA desilusión
      LA7              RE        FA#  SIm 
de que falsos fueron tus besos

 Punteo:

* - Acento
h - Hammer-on
p - Pull-off
~ - Vibrato
() - Ghost (nota apenas audible)


          *     *                 *                                   *   *  *         
e |---------------------0---------      |------------------------      |-2--3--5~-3-2-------------------      |
B |------5-3~~~-3-3h2p0---3-------      |--3-3h2p0---0h2---------      |-3------------5-3h2-3-5-0h2p0---      |
G |-(2h4)-------------------------      |------------------------      |-2------------------------------      |
D |------------------------------      |------------------------      |-0------------------------------      | 
A |------------------------------      |------------------------      |--------------------------------      |
E |------------------------------      |------------------------      |--------------------------------      | 

                              *  
e |-------------------------------      |------------------------      |--------------------------------      |
B |------------------------------      |------------------------      |--------------------------------      |
G |-2~~~-------------------------      |------------------------      |--------------------------------      |
D |------------------------------      |-5p4~--2-0--------------      |---(4h5-2h3h4---4-4h5-2h3-4~~~)--      | 
A |------------------------------      |-----------4-2-2-0------      |--------------------------------      |
E |------------------------------      |-------------------3-2~~      |--------------------------------      |
Suggest correction
Creating personal tab
Creating personal tab
You can edit any tab online and save it as your Personal.

You can edit, replace or remove any tab part or add personal notes – all changes will be seen only by you.

Personal tabs can be accessed anytime from any device, even offline.
Learn more »
Give kudos to tab author, rate the tab!
1 2 3 4 5
comments
print report bad tab
1 comment total.
0 reply
gabensa 10 Apr 04, 2016 05:24 AM

Hola. En el intro , en la tercera frase debe ser 2 0 y no 3 0. Probadlo. Un saludo

guest
Wanna post a correction for this tab? Suggest correction