Oops, an error
Loading. Please wait.

The Last Outlaw Tab

65 views 1 this week
no commentswrite comment
1 2 3 4 5
please rate
add to favorites
launch autoscroll
font size
0
reset
how to read this tab
guitar tuner
Autoscroll
slow
fast
+/-
esc
set tempo
stop
Help us to improve Ultimate-Guitar.com Take our survey!
×
Author
Difficulty
Tuning
MSA52 309
advanced
D# G# C# F# A# D#
This song is in Half-Step Down Tuning, ENJOY :)

INTRO/VERSE

--------------------------------------------|
--1---1---1---1------1---1---1---1-------1--|
---2---2---2---2------2---2---2---2-------2-|
----2---2---2---2---2------0---0---0----0---|
-0----------------------3-------------------|
--------------------------------------------|

--------------------------------------------|
--1---1---1---1------1---1---1------3---3---|
---2---2---2---2------2---2---2------4---4--|
----2---2---2---2---2------0---0------0---0-|
-0----------------------3--------3/5--------|
--------------------------------------------|

PRE CHORUS:

--------------------------------------|
--------------------------------------|
--------------------------------------|
--------------------------------------| X2
-3--3--3-3-3--3-3----5--5--5-5-5--5-5-|
-1--1--1-1-1--1-1----3--3--3-3-3--3-3-|

CHORUS:
just strum Am, C, G, D over again.
                       Am  C  G  D                X4
"He's The Last Outlaw"       "Woah, Woah"

BREAKDOWN RIFF 1:

--------------------------------------------------------|
--------------------------------------------------------|
--------------------------------------------------------|
---------------------2-5------------------------2-7-2-7-| X2
-7-7-7-7----7-7-7-7--0-3----7-7-7-7----7-7-7-7--0-5-0-5-|
-5-5-5-5----5-5-5-5---------5-5-5-5----5-5-5-5----------|

BREAKDOWN RIFF 2:

-----------------------------------------------------------|
-----------------------------------------------------------|
-----------------------------------------------------------|
-2-2-2-2-3/5-2-2-2-2-3/5-2-3/5-2-2-2-2-3/5-2-2-2-2-3/5-2-7-| X2
-0-0-0-0-2/3-0-0-0-0-2/3-0-2/3-0-0-0-0-2/3-0-0-0-0-2/3-0-5-|
-----------------------------------------------------------|
pm......    pm......    pm     pm.....     pm.....    pm

SOLO 1: (Just Play Breakdown Riff 2 During Whole Solo 1)

-15-12-12-12-14-12-12-12-15-12-17-12-12-12-15-12-12-12-14-|
----------------------------------------------------------|
----------------------------------------------------------| X2
----------------------------------------------------------|
----------------------------------------------------------|
----------------------------------------------------------|

-17p15p12-17p15p12-17p15p12-17p15p12-|
-------------------------------------|
-------------------------------------|
-------------------------------------|
-------------------------------------|
-------------------------------------|

-19p17p14-19p17p14-19p17p14-19p17p14-|
-------------------------------------|
-------------------------------------|
-------------------------------------|
-------------------------------------|
-------------------------------------|

-19p17p16-19p17p16-19p17p16-19p17p16-19b~~~~~~~~19br-|
-----------------------------------------------------|
-----------------------------------------------------|
-----------------------------------------------------|
-----------------------------------------------------|
-----------------------------------------------------|

--------------------------------------------------------10~-|
---------------------------------------------10h12p10h12----|
-12b-12b-12brp10h12br-10----------10h12p10h12---------------|
-------------------------12~-10h12--------------------------|
------------------------------------------------------------|
------------------------------------------------------------|

-13p11p1013p11p1013p11p1013p11p1015p13p1215p13p1215p13p1215p13p12-|
------------------------------------------------------------------|
------------------------------------------------------------------|
------------------------------------------------------------------|
------------------------------------------------------------------|
------------------------------------------------------------------|

-17p15p1417p15p1417p15p1417p15p1420p18p1720p18p1720p18p1720p18p17-|
------------------------------------------------------------------|
------------------------------------------------------------------|
------------------------------------------------------------------|
------------------------------------------------------------------|
------------------------------------------------------------------|

SOLO 2: (Just play Breakdown Riff 1 During Whole Solo 2)

-t14p12p10h12-|
--------------|
--------------|
--------------| X4
--------------|
--------------|

-t15p12p10h12- X4

-t17p12p10h12- X4

AFTER SOLO 2, PLAY CHORUS AGAIN BUT POWER CHORDED THE BREAKDOWN RIFF 2 4 TIMES THEN ITS 
THE END :)
Suggest correction
What's this?
You can suggest a correction to this tab. Community and Mods will review your correction and vote to approve or reject it.
comments
We did not receive enough feedback on this tab! Please rate:
print report bad tab
1 2 3 4 5
guest
You may want to rate the tab now too:
select rating
Please do not post tabs as comments. Select "correction" instead!