Oops, an error
Loading. Please wait.

Unspeakable bass

21 views 1 this week
no commentswrite comment
1 2 3 4 5
3 more votes to show rating
add to favorites
×
Save as Personal and add changes to this tab that will be seen only by you. Learn more ›
×
You can save this tab as Personal to edit and correct it or add notes. All changes will be seen only by you. Learn more »
launch autoscroll
font size
0
reset
guitar tuner
edit
Autoscroll
slow
fast
+/-
esc
set tempo
stop
This is the bass to the song Unspeakable :) Drop D tuning

Intro:

------------------------------------------------------------|
------------------------------------------------------------| X7
------------------------------------------------------------|
-0-2-2-2-0-2-3--0-2-2-2-0-2-5--0-2-2-2-0-2-3--0-2-2-2-5--3--|

----------------------------------------------------------------|
----------------------------------------------------------------|
----------------------------------------------------------------|
-0-2-2-2-0-2-3--0-2-2-2-0-2-5--0-2-2-2-0-2-3--0-2-2-2--0--0--0--|
(^ only do this riff before the verses)


Verses: (Do this whole Verse riff 2 times)

-------------------------------------------------------------------|
-------------------------------------------------------------------|
-------------------------------------------------------------------|
-0-2-2-2-2--0-2-2-2-2--0-3-3-3-3--0-3-3-3-3--0-2-2-2-2--0-2-2-2-2--|


-----------------------|
-----------------------|
-----------------------|
-0-5-5-5-5--0-3-3-3-3--|


Chorus: (Maybe wrong, but idk, it seems right)

----------------------------------------------------|
----------------------------------------------------|
----------------------------------------------------|
-2--2--2--2--3--3--3--3--1--1--1--1--2--3--3--3--3--|

Then its the Intro again 2 times, then the verse riff again, chorus again, solo (just 
play intro 4 times) then the breakdown:

Breakdown: play this 6 times (the first 2 are the guitar alone, so we play this 
breakdown 8 times in total, just the bass starts playing this on the 3rd time)

----------------------------------------------------------------------------|
----------------------------------------------------------------------------|
----------------------------------------------------------------------------|
-0----0-0-0----0-0-0----0-0-0----2/3----0----0-0-0----0-0-0----0-0-0----3/5-|

            
            
Suggest correction
Creating personal tab
Creating personal tab
You can edit any tab online and save it as your Personal.

You can edit, replace or remove any tab part or add personal notes – all changes will be seen only by you.

Personal tabs can be accessed anytime from any device, even offline.
Learn more »
Give kudos to tab author, rate the tab!
1 2 3 4 5
comments
print report bad tab
guest
You may want to rate the tab now too:
select rating
Wanna post a correction for this tab? Suggest correction