Oops, an error
Loading. Please wait.

Changin Times Tab

version 2
version 2

Whole song

Interactive

4,088 views 1 this week
no commentswrite comment
1 2 3 4 5
x 6
add to favorites
launch autoscroll
font size
0
reset
how to read this tab
guitar tuner
Autoscroll
slow
fast
+/-
esc
set tempo
stop
Help us to improve Ultimate-Guitar.com Take our survey!
×
Author
Difficulty
intermediate
Tuning:standard
Tabbed by:shredder
Artist:Nazareth
Album:Hair of the dog
Song: Changin times

Ok for the most part, the other tab had the right structure, but not the right notes.  So here is this.

Main Rhythm Figure (intro)
E|---------------------------------------------------------------|
B|---------------------------------------------------------------|
G|---------------------------------------------------------------|
D|-2-0-----------2-0-----------2-0-2-0-2-0-2h4-0h2p0-------------|
A|-----2-0-----------2-0-----------------------------0h2p0-------|
E|---------2b3p0---------2b3p0-----------------------------2b3p0-|

E|-----------------------------------------------------------------|
B|-----------------------------------------------------------------|
G|-2-0-----------2-0-----------2-0-2-0-2-0-4-4p2p0-----------------|
D|-----2-0-----------2-0---------------------------4p2p0-------2===|
A|---------2b3p0---------2b3p0---------------------------4p2p0-2===|
E|-------------------------------------------------------------0===|
note: let that E chord ring through the verse lines

first verse break       second verse break
E|------------------||E|--------------------------------|
B|------------------||B|--------------------------------|
G|------------------||G|--------------------------------|
D|-2-0--------------||D|-2-0-----------2-0--------------|
A|-----2-0----------||A|-----2-0-----------2-0----------|
E|---------2b3p0====||E|---------2b3p0---------2b3p0====|
always let those notes ring hard

then repeat the main rhythm figure and go to second verse.  You basically just repeat everything here.

Chorus
E|--------------------------------|
B|--------------------------------|
G|-4------4------4----4===--------|
D|-4------4------4----4===----0---|
A|-2--2-2-2--2-2-2--2-2===0h2---2-|
E|--------------------------------|
      m m    m m    m   
play this part four times then the following

E|-------------------------------|
B|-------------------------------|
G|-------------------------------|
D|--------------4-------4-----4==|
A|-----0--------4-------4-----4==|
E|-0h2---2--2-2-2-2-2-2-2-2-2-2==|
            m m   m m m   m m 
play this four times

End Chorus
E|-----------------------|
B|-----------------------|
G|-----------------------|
D|-4-2========2-0========|
A|-4-2========2-0========|
E|-2-0========-----------|

End song
E|----------------------------|
B|----------------------------|
G|-7h9-----9--------9-----9===|
D|-7h9-----9--------9-----9===|
A|-7-7-----7--------7-----7===|
E|-----0-0---0-0-0----0-0-----|
       m m   m m m    m m
play this four times
then this
E|---------------|
B|---------------|
G|-9---9---9---9-|
D|-9---9---9---9-|
A|-7---7---7---7-|
E|---0---0---0---|
     m   m   m
just repeat that for the rest of the song over the solo

Solo (what i have of it anyway)
E|---------------------------------------------------------|
B|---------------------------------------------------------|
G|---------------------------------------------------------|
D|-2p0h2p0h2p0h2p0h2p0h2p0h2p0h2p0h2p0h2p0h2p0h2p0h2p0h2p0-|
A|---------------------------------------------------------|
E|---------------------------------------------------------|

E|------------------||-3p2p0-3p2p0-3p2p0-3p2p0-3p2p0-3p2p0-h3/5-|
B|------------------||------------------------------------------|
G|------------------||------------------------------------------|
D|-h2p0h2p0h2p0h2p0-||------------------------------------------|
A|------------------||------------------------------------------|
E|------------------||------------------------------------------|

E|-------------------------------------|
B|-------------------------------------|
G|-------------------------------------|
D|-2====4-4b6====7-9b11-9---7-6~~~~~~~~|
A|-------------------------------------|
E|-------------------------------------|

there ya go, enjoy it.  It sounds great to me
Suggest correction
comments
print report bad tab
guest
You may want to rate the tab now too:
select rating
Wanna post a correction for this tab? Suggest correction