Oops, an error
Loading. Please wait.

Hair Of The Dog intro tab

version 1
version 1

Intro

Whole song

7,654 views 1 this week
5 commentsread comments
1 2 3 4 5
x 3
add to favorites
×
Save as Personal and add changes to this tab that will be seen only by you. Learn more ›
×
You can save this tab as Personal to edit and correct it or add notes. All changes will be seen only by you. Learn more »
launch autoscroll
font size
0
reset
how to read this tab
guitar tuner
backing track
0:00
0:00
edit
Autoscroll
slow
fast
+/-
esc
set tempo
stop
This is my first tab, and im pretty sure i did it right.. but, here is the real way to 
hair of the dog. well at least the intro (MJH)


e:-----------------------------|
b:-----------------------------|
g:------------------------ <---| Play this 6 times
d:----------2-5----------------|
a:2--------2---7-5-7-----------|
e:0--0-3-4---------------------|


e:------------------------|
b:------------------------|
g:----------2-5-----------|
d:2-------2----7-5-7------|
a:0-0-3-4-----------------|
e:------------------------|


e:------------------------|
b:------------------------|
g:----------2-2-5---------|
d:2-------2-2-2--7-5-7----|
a:0-0-3-4-----------------|
e:------------------------|

            
            
Suggest correction
Creating personal tab
Creating personal tab
You can edit any tab online and save it as your Personal.

You can edit, replace or remove any tab part or add personal notes – all changes will be seen only by you.

Personal tabs can be accessed anytime from any device, even offline.
Learn more »
Give kudos to tab author, rate the tab!
1 2 3 4 5
comments
print report bad tab
5 comments total. Showing first comments.
0 reply
jollyroger 10 Apr 09, 2006 01:31 PM

you got the bare bones of the song dude heres what my book says, of course i could be wrong.
E
B
G
D 2 5 2 2
A 2 5
E 0 0 3 4

E
B
G 2 5 2 2 2 {2} 5 2
D 2 5 2 2 {2} 5 2
A 0 0 3 4 0 0 3 4
E
I'm doing this from memory so if i'm wrong forgive me

0 reply
jollyroger 10 Apr 09, 2006 01:40 PM

um never mind i ****ed up lemme try again
E
B
G
D----------2--5-2-----2------------2--5-2-----2
A -------2---------5--------------2--------2---
E 0-0-3-4------------------0-0-3-4-------------


E
B
G----------2--5-2----2------------{2}-5-2
D---------2--------5------------2-{2}-----5-2
A 0-0-3-4----------------0-0-3-4
E

0 reply
SoLoAdDiCt85 10 Jun 11, 2008 04:12 PM

well i have been listening to this song a long time and i think it goes like this i've played it with the song and it sound just like it

e------------------------------
b------------------------------
g------------------------------
d------------1---4p1---1-------
a-------1--3---------3---------
e--0--3------------------------

e-------------------------
b-------------------------
g-----------2--5p2--0h2---
d---------2---------------
a---0-3-4-----------------

that's what sounds right to me!!!!!!!!!!
e

guest
Wanna post a correction for this tab? Suggest correction