Oops, an error
Loading. Please wait.

Love Hurts Chords

version 1
version 1

Whole song

329,971 views 504 this week
9 commentsread comments
1 2 3 4 5
x 51
add to favorites
launch autoscroll
font size
0
reset
transpose
0
reset
display chords
guitar tuner
Autoscroll
slow
fast
+/-
esc
set tempo
stop
Help us to improve Ultimate-Guitar.com Take our survey!
×
[Verse 1]

G            Em          C               D    C
Love hurts, Love scars, Love wounds and mars
      G     Em           C      D    C
Any heart not tough or strong enough
           G       B               G     
To take a lot of pain, take a lot of pain
Em                   C                D      C
Love is like a cloud, it holds a lot of rain
G           F     C
Love hurts, Ooo-oo Love hurts


[Verse 2]
G          Em      C     D    C
I'm young, I know, But even so
           G       Em        C     D     C
I know a thing or two - I learned from you
                     G      B         G          
I really learned a lot, really learned a lot
Em             C                          D      C 
Love is like a flame It burns you when it's hot
G           F     C
Love hurts, Ooo-oo Love hurts


[Bridge]

G                   Em     G    Em      G     Em       G
Some fools think of happiness, blissfulness, togetherness
A                A                         
Some fools fool themselves, I guess
A                     D    C
They're not foolin' me

                  G   B            G            
I know it isn't true I know it isn't true
Em             C                     D      C
Love is just a lie made to make you blue
G           F     C
Love hurts, Ooo-oo Love hurts


[Solo]

Solo (Play over verse):

e|-----------------------------------|-----------------------------------------------|
B|-8v--10b^--8v--12b^--8v--12b^--10v-|-8b^-8v--10b^--8v--12b^--8vv--12b^--10v--14b^v-|
G|-----------------------------------|-----------------------------------------------|
D|-----------------------------------|-----------------------------------------------|
A|-----------------------------------|-----------------------------------------------|
E|-----------------------------------|-----------------------------------------------|

(Continue with the end of the verse):


               G  B                G
I know it isn't true I know it isn't true
Em             C           D      C
Love is just a lie made to make you blue
G          F      C          G
Love hurts, Ooo-oo Love hurts
F     C         G  F     C
Ooo-oo, Love hurts Ooo-oo
Suggest correction
comments
print report bad tab
9 comments total. Showing first comments.
0 reply
MPA91589 31 Dec 06, 2006 09:59 PM

wrongggg

-2 reply
mattman25 21 May 06, 2007 04:05 AM

good tab literitar

+5 reply
hstntxal 10 Oct 08, 2007 09:32 PM

Nice version, but I think Nazareth plays B7 where
you play Asus2, and then bridge goes Em,B7,Em,B7,Em,B7,Em
instead of G,Em,G,Em,G,Em. Play it like this, and I think you
will agree that it is closer to Nazareth's version, although
with all the flanging and distortion I admit that it is hard to
tell exactly what he is playing.

C G B7 Em
To take a lot of pain, take a lot of pain
----------0-------------------------------
-------------1------0-----------0------0--
---------------------0--------2-------0-0-
------2--------------------1---------2----
---3--------------2----2------------------
-----------------3------------------------

B7 C/G D C
Love is like a cloud, holds a lot of rain
-------------------3-----------------3------0--
-------------0----1-1------------------2-----1-
--------2--------0----0-----------3------------
-----1----------2----------(2)-0-----------2---
2--------------3--------------------------3----
-----------------------------------------------

Play it the same for "I really learned a lot..."
and "I know it isn't true..."

Then the bridge should be:

Em B7 Em B7 Em B7 Em
Some fools think of happiness, blissfulness, togetherness
A A
Some fool fool themselves I guess
A D
They're not fooling me

guest
You may want to rate the tab now too:
select rating
Wanna post a correction for this tab? Suggest correction