Oops, an error
Loading. Please wait.

Love Hurts Tab

version 1
version 1
51,699 views 57 this week
4 commentsread comments
1 2 3 4 5
x 10
add to favorites
launch autoscroll
font size
0
reset
how to read this tab
guitar tuner
Autoscroll
slow
fast
+/-
esc
set tempo
stop
Help us to improve Ultimate-Guitar.com Take our survey!
×
I do play the Nazareth song "Love Hurts"  like this :


        C       Am         F        G
e|------0--------0---------1--------3-------------|
B|-----1-1------1-1-------1-1------0-0------------|
G|----0---0----2---2-----2---2----0---0-----------|          
D|---2-----2 -2-----2 --3-----3--0-----0----------|
A|--3------- 0---------3--------------------------|
E|------------------------------3-----------------|(x2)

Love hurts, love scarves, love wounds and marks
Any heart, not tough or strong enough  

        E        Am        F         G
e|------0--------0---------1---------3----|
B|-----0-0------1-1-------1-1-------0-0---|
G|----1---1----2---2-----2---2-----0---0--|
D|---2-----2 -2-----2---3-----3---0-----0-|
A|--2------- 0-------- 3-------3 ---------|
E|------------------------------ 3--------|

                         E             Am
To take a lot of pain, take a lot of pain
                 F                       G
Love is like a clowd, to hold a lot of rain

   C         G           Am
e|-0---------3-------0-------|
B|-1---------0-------1-------|
G|-0---------0-------2-------|
D|-2---------0-------2-------|
A|-3---------2-------0-------|
E|---------------------------|

            C          G          Am
Love hurts oooooOOOOOOoooooooLove hurtsI'm young, I know but even so
I know I been or do, I learned from you
I really learned a lot, really learned a lot
Love is like a flame that burns you when it's hot
Love hurts  ooooOOOOOOoooLove hurts.


e|-0-------------------0---0-----0-|
B|-1-------------------0---1-----0-|
G|-2-------------------1---2-----1-|   like this the tree next lines.
D|-2-------------------0---2-----0-|   Then you play the to next lines with much
A|-0-------------------3---0-----3-|   sound, and the last as usual.
E|---------------------------------|   Then you whistle and play the three last line
                                       with feelings if you know what I mean


Am                  E7    Am   E7        Am   E7     Am
Some fools think of happiness, blessfullness, togetherness
D7
Some fools really scarves, I guess
                  G
their not fooling me
                C     Em              Am
I know it isn't true, I know it is'nt true
               F                     G
Love is just a lie, made to make you blue
           C        G           Am
Love Hurts ooooOOOOOOOooo love hurts
Suggest correction
comments
print report bad tab
4 comments total. Showing first comments.
0 reply
wangmaster 343 Jul 28, 2006 07:18 AM

the main run sounds too much like buick makane for me.

0 reply
wangmaster 343 Jul 28, 2006 07:18 AM

^ sorry. I meant dandy in the underworld.

0 reply
TheNextPage23 10 Jun 04, 2007 08:45 PM

whistle the solo? ftw?

guest
You may want to rate the tab now too:
select rating
Wanna post a correction for this tab? Suggest correction