Oops, an error
Loading. Please wait.

May Heaven Keep You Tab

307 views 3 this week
no commentswrite comment
1 2 3 4 5
1 last vote to show rating
add to favorites
launch autoscroll
font size
0
reset
how to read this tab
guitar tuner
Autoscroll
slow
fast
+/-
esc
set tempo
stop
Author
PLEASE NOTE
This file is the author's own work and represents their interpretation of the
song. You may only use this file for private study, scholarship, or research.
 
Nazareth - May Heaven Keep You. Tabbed by Jura Bartonek (Jago syn Jungle) from Czech Republic. 24.02.06. 
PLEASE RATE ME :)

 INTRO : 2x
e[-----0--5-------0-5-4-2-0-2-4------0-5-------5-4-2-0-2-4---------------]
B[-------------------------------------------5---------------------------]
G[---2----------4-----------------2--------2-----------------------------]
D[-----------2-------------------4-------0-------------------------------]
A[--0--------------------------------------------------------------------]
E[-----------------------------------------------------------------------] 

  0:30
e[--------5-------4-----0--5----0-2--------------------------------------]
B[------5-------5--------------------------------------------------------]
G[---2--------4-------2------2-------------------------------------------]
D[----------2-------4------0---------------------------------------------]
A[--0--------------------------------------------------------------------]
E[-----------------------------------------------------------------------] 

  Akustic Part  2x
e[----2----2---2-----2--4-------------------------------------------------]
B[--2-3--2-3---2--4--3--5-------------------------------------------------]
G[--2-2--2-2---3--4--2--4-------------------------------------------------]
D[--2-0--2-----4--4-------------------------------------------------------]
A[-------------4--2-------------------------------------------------------]
E[-------------2----------------------------------------------------------] 

                   I Hope...
e[----------------*--------------------------------------------------------]
B[----------------*--------------------------------------------------------]
G[-9--7--6--4-2-9-*-7-7--9-------------------------------------------------]
D[-9--7--6--4-2-9-*-7-7--9-------------------------------------------------]
A[-7--5--4--2-0-7-*-5-5--7-------------------------------------------------]
E[----------------*--------------------------------------------------------] 

  Akustic Part  2x
e[----2----2---2-----2--4-------------------------------------------------]
B[--2-3--2-3---2--4--3--5-------------------------------------------------]
G[--2-2--2-2---3--4--2--4-------------------------------------------------]
D[--2-0--2-----4--4-------------------------------------------------------]
A[-------------4--2-------------------------------------------------------]
E[-------------2----------------------------------------------------------]

e[--------5--------5--4-2-0-2-4--------5-------5-4-2-0-2-4---------------]
B[------5---------5------------------5-------5---------------------------]
G[---2----------4-----------------2--------2-----------------------------]
D[-----------2-------------------4-------0-------------------------------]
A[--0--------------------------------------------------------------------]
E[-----------------------------------------------------------------------] 

  Solo 1:
e[--------------------------------------------------------------------------------------------------------------------------------]
B[------------------7-9-10--7---7--7/10-----------15---/17--17*15*------*17--17*15*-----------------------------------------------]
G[--------------7-9-----------6--------7-------14---14------------16*14------------*16*14-*16*14*12*14*---------------------------]
D[--9-7-9---7/9----------------------------------------------------------------------------------------14-------------------------]
A[--------------------------------------------------------------------------------------------------------------------------------]
E[--------------------------------------------------------------------------------------------------------------------------------] 

e[------17-19/21---21-19-17-/22------------------------------------------]
B[--/17------------------------------------------------------------------]
G[---------------------------------9/11-9-7--4/6-4-2---------------------]
D[---------------------------------9/11-9-7--4/6-4-2---------------------]
A[-----------------------------------------------------------------------]
E[-----------------------------------------------------------------------] 

                   I Hope...
e[----------------*--------------------------------------------------------]
B[----------------*--------------------------------------------------------]
G[-9--7--6--4-2-9-*-7-7--9-------------------------------------------------]
D[-9--7--6--4-2-9-*-7-7--9-------------------------------------------------]
A[-7--5--4--2-0-7-*-5-5--7-------------------------------------------------]
E[----------------*--------------------------------------------------------] 


e[-----------------------------------------------------------------------]
B[-----------------------------------------------------------------------]
G[--2--------7-----------------------------------------------------------]
D[--2--2--4--7-----------------------------------------------------------]
A[--0--2--4--5-----------------------------------------------------------]
E[-----0--2--------------------------------------------------------------] 

  SOLO 2:
e[---------------------------------------17--17--19-21-19-17---21*19*17*------------------------------------------------]
B[------------------------15--/17-19--/19--19---------------------------17-15-------------------------------------------]
G[---------------------14---------------------------------------------------------Soory here I use my "improvization":)-]
D[--------11-14--/16-16-------------------------------------------------------------------------------------------------]
A[-12-/14---------------------------------------------------------------------------------------------------------------]
E[----------------------------------------------------------------------------------------------------------------------] 
Suggest correction
Give kudos to tab author, rate the tab!
1 2 3 4 5
comments
print report bad tab
guest
You may want to rate the tab now too:
select rating
Wanna post a correction for this tab? Suggest correction