Oops, an error
Loading. Please wait.

Miss Misery tab

version 2
version 2

Whole song

4,144 views 15 this week
no commentswrite comment
1 2 3 4 5
x 10
add to favorites
×
Save as Personal and add changes to this tab that will be seen only by you. Learn more ›
×
You can save this tab as Personal to edit and correct it or add notes. All changes will be seen only by you. Learn more »
launch autoscroll
font size
0
reset
how to read this tab
guitar tuner
backing track
0:00
0:00
edit
Autoscroll
slow
fast
+/-
esc
set tempo
stop
Alright
Im sorry man
but the other tab on this song doesnt sound right at all
I tried playing it a different way
and this is what i came up with
I know it might not be 100% correct
but it sounds right on my guitar

anyway

here you are

Intro:

e|------------------------------------------------------------------|
B|------------------------------------------------------------------|
G|------------------------------------------------------------------|
D|--7s9-9----7s9-9----------7s9-9----7s9-9----7s9-9----------7s9-9--|
A|--5s7-7----5s7-7---7--5---5s7-7----5s7-7----5s7-7---7--5---5s7-7--|
E|-------------------5--3-----------------------------5--3----------|

Verse:

e|-----------------------------|
B|-----------------------------|
G|-----------------------------| (x4)
D|---------7s9-9---------9-7---|
A|--7s9-9--5s7-7--7s9-9--7-5---|
E|--5s7-7---------5s7-7--------|

Pre Chorus:

e|---------------------------|
B|---------------------------|
G|---------------------------|
D|---------9s11-11---9-7-4---|
A|--7s9-9--7s9---9---7-5-2---|
E|--5s7-7--------------------|

Chorus:

e|-------------------|                    e|----------------|
B|-------------------|                    B|----------------|
G|-------------------|                    G|----------------|
D|-------------------|(x3)  then on the   D|----------------|
A|--5-5--7-7-7s9-9---|       last time    A|--5-5--7-7--2---|
E|--3-3--5-5-5s7-7---|                    E|--3-3--5-5--0---|

Post Chorus:

e|------------------------------------------------|
B|------------------------------------------------|
G|------------------------------------------------|
D|----------------9-7----------------9-7----------|
A|--7s9-9--7s9-9--7-5--7s9-9--7s9-9--7-5--7-9-9---|
E|--5s7-7--5s7-7-------5s7-7--5s7-7-------5s7-7---|

Solo:

e|--/12--10------10--12------12/15\12-------------|
B|-7/12------10----------12-------------9/--------|
G|--------------------------------------9/--------|
D|------------------------------------------------|
A|------------------------------------------------|
E|------------------------------------------------|

e|------------------------------------------------|
B|-5/8\5/8\5/10\8\5\3-0-3--3-0-3-5\3/5------------|
G|------------------------------------------------|
D|------------------------------------------------|
A|------------------------------------------------|
E|------------------------------------------------|

e|-14/-14--17/19\17\14/--14\11--14\11-14------------|
B|-14/-14---------------------------------14\11-----|
G|----------------------------------------------9/11|
D|----------------------------------------------9/11|
A|--------------------------------------------------|
E|--------------------------------------------------|

e|-14-14\11/14-14\11/14----14\11/14---14/17/19/21\19-19-19-19\\-|
B|----------------------14------------14/17/19/21\19------------|
G|--------------------------------------------------------------|
D|--------------------------------------------------------------|
A|--------------------------------------------------------------|
E|--------------------------------------------------------------|


Please Rate, Comment, Critique!

--JAKE

            
            
Suggest correction
Creating personal tab
Creating personal tab
You can edit any tab online and save it as your Personal.

You can edit, replace or remove any tab part or add personal notes – all changes will be seen only by you.

Personal tabs can be accessed anytime from any device, even offline.
Learn more »
comments
print report bad tab
guest
You may want to rate the tab now too:
select rating
Wanna post a correction for this tab? Suggest correction