Oops, an error
Loading. Please wait.

Sunshine chords

3,097 views 54 this week
3 commentsread comments
1 2 3 4 5
x 12
add to favorites
×
Save as Personal and add changes to this tab that will be seen only by you. Learn more ›
×
You can save this tab as Personal to edit and correct it or add notes. All changes will be seen only by you. Learn more »
launch autoscroll
font size
0
reset
transpose
0
reset
simplify chords
display chords
guitar tuner
edit
Autoscroll
slow
fast
+/-
esc
set tempo
stop
Strumming
There is no strumming pattern for this song yet. and get +5 IQ
Artist: Nazareth
Title: Sunshine
tabbed by Fepo

Key: D
Strumming: D DUD DUD DUD D


D          G
Sunshine, every single day
         G/C      G/B
Helps to light my way
    D        G
And darlin', right before my eyes
         G/C           G/B
It don't come as no surprise

D           A
  That it's easy
G D  Em     D
Easy lovin' you

D          G
And baby, 'til you came along
          G/C              G/B
There was always something wrong
 D                   G                     G/C  G/B
Around me, there was emptiness of course
         D
But it's alright


         A
And it's easy
G D  Em     D
Easy lovin' you


D             G
And sunshine, having you around
           G/C           G/B
You're the light I never found
    D              G                   G/C  G/B
And darlin', every minute you're away
         D
But it's brighter


         A
And it's easy


G D  Em     D
Easy lovin' you


Interlude: Play as you want :)

Chords between the interlude:

A D A D A G   GDAAD (this last 5 Strumming DDDDD )

Solo between the interlude:

e|-----------12--14------------|
B|-----------------------------|
G|-----------------------------|
D|-----------------------------|
A|-----------------------------|
E|-----------------------------|

e|-----------------------------------------------|
B|-----------------------------------------------|
G|-----------------------------------------------|
D|----------------------7--9/11--11/9--7---------|
A|--11--11/9--9/7--7-----------------------------|
E|-----------------------------------------------|

e|-----------------------------------------------|
B|-----------------------------------------------|
G|-----------------------------------------------|
D|----------------------7/9--9/11--11-12-11------|
A|---11/9--9/7--7--------------------------------|
E|-----------------------------------------------|

e|-----------------------------------------------|
B|-----------------------------------------------|
G|-----------------------------------------------|
D|------------------  6--9--6--------------------|
A|----11/9--9/7--7-------------------------------|
E|-----------------------------------------------|

e|-----------------------------------------------|
B|-----------------------------------------------|
G|-----------------------------------------------|
D|---11/9-9/7--7-6-7-----------------------------|
A|-----------------------------------------------|
E|-----------------------------------------------|


D          G
Sunshine, every single day
         G/C      G/B
Helps to light my way
    D        G
And darlin', right before my eyes
         G/C           G/B
It don't come as no surprise

D         A
That it's easy
G D  Em     D
Easy lovin' you


Solo till the End

I'm not a 100% Guitarplayer. I have
little Problems with Solos (hammering
and pull offs and the right bending).
But i learn every day. So i bring this Solo
and edit this Tab.

            
            
Suggest correction
Creating personal tab
Creating personal tab
You can edit any tab online and save it as your Personal.

You can edit, replace or remove any tab part or add personal notes – all changes will be seen only by you.

Personal tabs can be accessed anytime from any device, even offline.
Learn more »
comments
print report bad tab
3 comments total.
0 reply
MuzikGurl 10 Aug 05, 2017 11:52 AM

Sounds about right! 😀 The G/C and G/B are not written the way I have played them but that's probably my rudimentary chord knowledge! been

+1 reply
MuzikGurl 10 Aug 05, 2017 11:55 AM

BTW I learned this song bc I just saw the 'new' Nazareth and they are RIDICULOUSLY amazing with singer Carl Sentance - stupendous!!!!

0 reply
guretsky 228 Sep 01, 2017 01:28 PM

I like it. allows for creativity

guest
You may want to rate the tab now too:
select rating
Wanna post a correction for this tab? Suggest correction