Oops, an error
Loading. Please wait.

The Rowan Tree Tell Me That You Love Me Tab

1 view 1 this week
no commentswrite comment
1 2 3 4 5
3 more votes to show rating
add to favorites
launch autoscroll
font size
0
reset
how to read this tab
guitar tuner
Autoscroll
slow
fast
+/-
esc
set tempo
stop
Help us to improve Ultimate-Guitar.com Take our survey!
×
Author
Difficulty
novice
[Intro]
e|-----0---0-0---0-3---3-8-5-3-5-8-5-3------|-----0---0-0---0-3-5-3-3-0----------------|
B|-1-3---3-----3-----------6----------------|-1-3---3-----3-----6-------3-3p1-1--------|
G|-------------------------5----------------|-------------------5----------------------|
D|------------------------------------------|------------------------------------------|
A|------------------------------------------|------------------------------------------|
E|------------------------------------------|------------------------------------------|

e|-3-8---8-8-7-7-5-5-8-3-5-5-3-1-0-0---0----|
B|-----------------------------------1---3--|
G|------------------------------------------|
D|------------------------------------------|
A|------------------------------------------|
E|------------------------------------------|

e|-----0---0-0---0-3-5-3-3-0----------------|----0-------------------------------------|
B|-1-3---3-----3-----6-------3-3p1-1--------|-1-3---3-3p1------------------------------|
G|-------------------5----------------------|------------------------------------------|
D|------------------------------------------|------------------------------------------|
A|------------------------------------------|------------------------------------------|
E|------------------------------------------|------------------------------------------|


************************************

| p   Pull-off

************************************

If you find room for improvements please comment them below.
Suggest correction
Give kudos to tab author, rate the tab!
1 2 3 4 5
comments
print report bad tab
guest
You may want to rate the tab now too:
select rating
Wanna post a correction for this tab? Suggest correction