Oops, an error
Loading. Please wait.

Closer Tab

version 1
version 1

Interactive

by Ne-Yo
74,389 views 18 this week
3 commentsread comments
1 2 3 4 5
x 13
add to favorites
launch autoscroll
font size
0
reset
how to read this tab
guitar tuner
×
Best way to learn
"Closer"
Autoscroll
slow
fast
+/-
esc
set tempo
stop
Author
Difficulty
e--------------------------|
B--------------------------|
G--------------------------|
D-2-2-5--------------------| 11X then 222222222222
A--------------------------|
E--------------------------|

After the whole song goes like this

e-----2---3--2---3---2---3--------2---3--2---3---2---3------|
B-1-3---3------3-------3------1-3---3------3-------3--------|
G-----------------------------------------------------------|
D-----------------------------------------------------------|
A-----------------------------------------------------------|
E-----------------------------------------------------------|

e-----2---3--2---3---2---3--------2---3--2---3---2---3------|
B-0-3---3------3-------3------0-3---3------3-------3--------|
G-----------------------------------------------------------|
D-----------------------------------------------------------|
A-----------------------------------------------------------|
E-----------------------------------------------------------|
Suggest correction
comments
print report bad tab
3 comments total.
0 reply
co&ca33 15 Jun 19, 2008 08:43 PM

A for effort.

The picking motion just doesnt flow together.

0 reply
Guitar-N-Bass 21 Aug 12, 2008 07:57 AM

In the first part, it should be palm-muted until you get to the other part of the song.

0 reply
Shawnypuff167 126 Aug 26, 2008 04:06 AM

its e for effort..but i agree with her

guest
You may want to rate the tab now too:
select rating
Wanna post a correction for this tab? Suggest correction