Oops, an error
Loading. Please wait.

Closer tab

version 4
version 4

Interactive

by Ne-Yo
25,830 views 1 this week
no commentswrite comment
1 2 3 4 5
1 last vote to show rating
add to favorites
×
Save as Personal and add changes to this tab that will be seen only by you. Learn more ›
×
You can save this tab as Personal to edit and correct it or add notes. All changes will be seen only by you. Learn more »
launch autoscroll
font size
0
reset
how to read this tab
guitar tuner
edit
Autoscroll
slow
fast
+/-
esc
set tempo
stop
Ne-Yo - Closer
Tabbed by Panda Ultracool
Standard Tuning
You can use a capo on 7th if u want
Easy Peezy stuff

Intro(0:00-0:13)
e------------|
B------------|
G------------|
D------------|
A-7-7--10----|
E------------|

(0:13-0:16)
e------------|
B------------|
G------------|
D------------|
A-7777777777-
E------------

Verse(0:16-0:57)
e-------------------------------------------------------------------|
B-----7---8---7---8---7---8---7-------7---8---7---8---7---8---7-----|
G---7---7---7---7---7---7---7---7---7---7---7---7---7---7---7---7---|
D-------------------------------------------------------------------|
A-------------------------------------------------------------------|
E-8--------------------------------8--------------------------------|

e-------------------------------------------------------------------|
B-----7---8---7---8---7---8---7-------7---8---7---8---7---8---7-----|
G---7---7---7---7---7---7---7---7---7---7---7---7---7---7---7---7---|
D-------------------------------------------------------------------|
A-7--------------------------------7--------------------------------|
E-------------------------------------------------------------------|

(0:57-1:02)
e------------|
B------------|
G------------|
D------------|
A-7777777777-
E------------

Chorus(1:02-1:25)
e-------------------------------------------------------------------|
B-----7---8---7---8---7---8---7-------7---8---7---8---7---8---7-----|
G---7---7---7---7---7---7---7---7---7---7---7---7---7---7---7---7---|
D-------------------------------------------------------------------|
A-------------------------------------------------------------------|
E-8--------------------------------8--------------------------------|

e-------------------------------------------------------------------|
B-----7---8---7---8---7---8---7-------7---8---7---8---7---8---7-----|
G---7---7---7---7---7---7---7---7---7---7---7---7---7---7---7---7---|
D-------------------------------------------------------------------|
A-7--------------------------------7--------------------------------|
E-------------------------------------------------------------------|

(1:25-1:28)
e------------|
B------------|
G------------|
D------------|
A-7-7--10----|
E------------|

(1:28-1:33)
e------------|
B------------|
G------------|
D------------|
A-7777777777-
E------------

Then back to verse riff

Yeah that pretty much sums up the whole song...
Im too lazy to put the rest up hehehe have fun figuring out in aint tricky
Suggest correction
Creating personal tab
Creating personal tab
You can edit any tab online and save it as your Personal.

You can edit, replace or remove any tab part or add personal notes – all changes will be seen only by you.

Personal tabs can be accessed anytime from any device, even offline.
Learn more »
Give kudos to tab author, rate the tab!
1 2 3 4 5
comments
print report bad tab
guest
You may want to rate the tab now too:
select rating
Wanna post a correction for this tab? Suggest correction