Oops, an error
Loading. Please wait.

Its You Tab

1,180 views 1 this week
no commentswrite comment
1 2 3 4 5
please rate
add to favorites
launch autoscroll
font size
0
reset
how to read this tab
guitar tuner
Autoscroll
slow
fast
+/-
esc
set tempo
stop
Help us to improve Ultimate-Guitar.com Take our survey!
×
Difficulty
novice
Standard Tunning:

This is that first part that goes
It's you, it's you, it's you.
It's you (Ooh)
E  0--0--0--0-------------------0--0--0--0--3-0-3-0-3-0-3-0---|
A --1--1--1 --1--5-0-5-0-5-0-5-0--1--1--1--1------------------|
D ------------------------------------------------------------|
G ------------------------------------------------------------|   X2
B  -----------------------------------------------------------|
E  -----------------------------------------------------------|


 C        Em                       Am   G    F             C
I'm at a loss, don't know what to say     to you. (Mm)
 C           Em                 Am               G         F
Throwing me off, I know what I feel but I can't tell you I do.
F                    Em                 F                C  G
See now I know my fights not for my-self, my fight's for yo-ou.
C                 Em                   Am  G       F
You're everything I never wanted to want,     it's true.
             C         Em                  Am  G         F
Said you're everything I never wanted to want,     it's you.

(go back to the picking like intro)
E  0--0--0--0-------------------0--0--0--0--3-0-3-0-3-0-3-0---|
A --1--1--1 --1--5-0-5-0-5-0-5-0--1--1--1--1------------------|
D ------------------------------------------------------------|
G ------------------------------------------------------------|   X2
B  -----------------------------------------------------------|
E  -----------------------------------------------------------|
It's you, it's you, it's you.
It's you, it's you. (Mm) (Ey)

 C            Em                Am               G       F
I'll write a song three times a day but I can't talk to you. (Ooh)
C               Em                  Am         G         F
I know what's wrong, I never meant for me to feel like I do (Oh)
F                     Em                 F            C  G
If this is love, it sucks cause I don't want it but I do-oo.

C                 Em                   Am  G       F
You're everything I never wanted to want,     it's true.
             C         Em                  Am  G         F
Said you're everything I never wanted to want,     it's you.
It's you, it's you, it's you.
It's you, it's you. (Mm) (Ey)

D     F     Am            D           F             Am
Just walk away (ay), wipe that  smile off your face. (Hey)
          D     F      Am          D
I just   wish I could say that to you.
           C
But I need you tonight.
Need you tonight...

(start picking again like intro)
E  0--0--0--0-------------------0--0--0--0--3-0-3-0-3-0-3-0---|
A --1--1--1 --1--5-0-5-0-5-0-5-0--1--1--1--1------------------|
D ------------------------------------------------------------|
G ------------------------------------------------------------|   X2
B  -----------------------------------------------------------|
E  -----------------------------------------------------------|
I need you for life.
Need you for life, life, life.

C                 Em                   Am  G       F
You're everything I never wanted to want,     it's true.
             C         Em                  Am  G         F
Said you're everything I never wanted to want,     it's you.

*(continue with the C Em Am G F pattern to the end)
It's you, it's you, it's you.
(Oh woah woah)
It's you, it's you. (Mm) (Ey)

(and then pick again like intro)
E  0--0--0--0-------------------0--0--0--0--3-0-3-0-3-0-3-0-|
A --1--1--1 --1--5-0-5-0-5-0-5-0--1--1--1--1----------------|
D ----------------------------------------------------------|
G ----------------------------------------------------------|
B  ---------------------------------------------------------|
E  ---------------------------------------------------------|
End last pick with  C

=)
Hope that's right everyone!
jess ;)
Suggest correction
Give kudos to tab author, rate the tab!
1 2 3 4 5
comments
print report bad tab
guest
You may want to rate the tab now too:
select rating
Wanna post a correction for this tab? Suggest correction