Oops, an error
Loading. Please wait.

Devour Me Colossus Part I solo bass

version 1
version 1

Solo

  • The Tab is based on the playthrough video by Cygnus.
811 views 6 this week
1 commentread comment
1 2 3 4 5
1 last vote to show rating
add to favorites
×
Save as Personal and add changes to this tab that will be seen only by you. Learn more ›
×
You can save this tab as Personal to edit and correct it or add notes. All changes will be seen only by you. Learn more »
launch autoscroll
font size
0
reset
guitar tuner
edit
Autoscroll
slow
fast
+/-
esc
set tempo
stop
Author
[ORIGINAL BASS TAPPING PART] (*5 strings)  

G|--------------16-----------------------------------------------|
D|-------16----------18----16-----------16----18----16----18-----|
A|--11-16-----11---11---11---11----11-16---11----11----11----11--|
E|–9--------9---------------------9-------9----------------------|
B|---------------------------------------------------------------|

G|--------------16-----------------------------------------------|
D|-------16----------18----16-----------16----18----16----18-----|
A|--11-16-----11---11---11---11----11-16---11----11----11----11--|
E|–9--------9---------------------9-------9----------------------|
B|---------------------------------------------------------------|

G|--------------16-----------------------------------------------|
D|-------16----------18----16-----------16----18----16----18-----|
A|–-12--------12---12---12---12----12------12----12----12----12--|
E|–----17------------------------------17------------------------|
B|-10-------10--------------------10------10---------------------|

G|-------------------16------------------------------------------|
D|-------16-----18---------18-----------16----18----16----14-----|
A|–-12--------12---12---12---12----12------12----12----12----12--|
E|–----17------------------------------17------------------------|
B|-10-------10--------------------10------10---------------------|


[BASS TAPPING PART] (4 strings version)   

G|--------------16-----------------------------------------------|
D|-------16----------18----16-----------16----18----16----18-----|
A|--11-16-----11---11---11---11----11-16---11----11----11----11--|
E|–9--------9---------------------9-------9----------------------|

G|--------------16-----------------------------------------------|
D|-------16----------18----16-----------16----18----16----18-----|
A|--11-16-----11---11---11---11----11-16---11----11----11----11--|
E|–9--------9---------------------9-------9----------------------|

G|-----------16-----------------------------------------|
D|--7--16--7----7-18-7-16-7----7---16--7-18-7-16-7-18-7-|
A|–-----------------------------------------------------|
E|–5--17--5-------------------5--17---5-----------------|

G|----------------16------------------------------------|
D|--7--16--7--18-7---7-18-7----7---16--7-18-7-16-7-14-7-|
A|–-----------------------------------------------------|
E|–5--17--5-------------------5--17---5-----------------|

Play again and again the whole thing throughout 8:56-10:20, before the bass line changes.
Done by ear, it seems ok to me but let me know if there's something wrong. 
Suggest correction
Creating personal tab
Creating personal tab
You can edit any tab online and save it as your Personal.

You can edit, replace or remove any tab part or add personal notes – all changes will be seen only by you.

Personal tabs can be accessed anytime from any device, even offline.
Learn more »
Give kudos to tab author, rate the tab!
1 2 3 4 5
comments
print report bad tab
1 comment total.
0 reply
connormartinjunk 10 Mar 24, 2017 08:39 PM

Thanks for uploading this, I think it's perfect.

guest
You may want to rate the tab now too:
select rating
Wanna post a correction for this tab? Suggest correction