Oops, an error
Loading. Please wait.

Devour Me Colossus Part I Bass Tab

version 2
version 2

Solo

  • The Tab is based on the playthrough video by Cygnus.
49 views 1 this week
no commentswrite comment
1 2 3 4 5
2 more votes to show rating
add to favorites
launch autoscroll
font size
0
reset
guitar tuner
Autoscroll
slow
fast
+/-
esc
set tempo
stop
Help us to improve Ultimate-Guitar.com Take our survey!
×
Author
Difficulty
intermediate
About this tab version
The Tab is based on the playthrough video by Cygnus. Was this info helpful? Yes No
Bass part

G|--------------|16-------------|--------------|--------------|
D|-----6-18---6-|-----18---16---|-----6-16---6-|18---16---18--|
A|16-4------4---|---4----4----4-|16-4------4---|---4----4----4|
E|--------------|---------------|--------------|--------------|

G|--------------|16-------------|--------------|--------------|
D|-----6-18---6-|-----18---16---|-----6-16---6-|18---16---18--|
A|16-4------4---|---4----4----4-|16-4------4---|---4----4----4|
E|--------------|---------------|--------------|--------------|

G|--------------|16-------------|--------------|--------------|
D|-----6-18---6-|-----18---16---|-----6-16---6-|18---16---18--|
A|--------------|---------------|--------------|--------------|
E|17-5------5---|---5----5----5-|17-5------5---|---5----5----5|

G|--------------|-----16--------|--------------|--------------|
D|-----6-16---6-|18--------18---|-----6-16---6-|18---16---14--|
A|--------------|---------------|--------------|--------------|
E|17-5------5---|---5----5----5-|17-5------5---|---5----5----5|


************************************

The whole thing is tapped but without pull-offs
therefore the left hand is quiet busy.

************************************
Suggest correction
Give kudos to tab author, rate the tab!
1 2 3 4 5
comments
print report bad tab
guest
You may want to rate the tab now too:
select rating
Wanna post a correction for this tab? Suggest correction