Oops, an error
Loading. Please wait.

Of The Leper Butterflies bass

version 1
version 1

Whole song

Interactive

2,099 views 3 this week
5 commentsread comments
1 2 3 4 5
x 3
add to favorites
×
Save as Personal and add changes to this tab that will be seen only by you. Learn more ›
×
You can save this tab as Personal to edit and correct it or add notes. All changes will be seen only by you. Learn more »
launch autoscroll
font size
0
reset
guitar tuner
edit
Autoscroll
slow
fast
+/-
esc
set tempo
stop
Tabbed by: 6METAL6BASSIST6
E-mail: petergriffinav@gmail.com

Tuning: BEADG

        0:10

G|17-------16-------17-------16-------17-------16-------------------------|
D|---19-------17-19----19-------17-19----19-------17-19-------14-15-14----|
A|------19----------------19----------------19----------12-15----------15-| x2
E|------------------------------------------------------------------------|
B|------------------------------------------------------------------------|

G|------------------------------------------------------------------------|.
D|17h19-19----------------------------17h19-19----------------------------|.
A|---------17h19-19-15h17-17-------------------17h19-19-15h17-17----------|.
E|---------------------------15h17-17----------------------------15h17-17-|.
B|------------------------------------------------------------------------|.
                                                                           . x4
G|---------------------------------------------------------------15-17-19-|.
D|17h19-19----------------------------------------------15-17-19----------|.
A|---------17h19-19-15h17-17-------------------15-17-19-------------------|.
E|---------------------------15h17-17-15-17-19----------------------------|.
B|------------------------------------------------------------------------|.

G|-----19----19h21-19----19h21-19----|
D|--------------------19----------19-|
A|-----------------------------------|
E|-----------------------------------|
B|-----------------------------------|

G|------------------------------------------------------------------------|.
D|17h19-19----------------------------17h19-19----------------------------|.
A|---------17h19-19-15h17-17-------------------17h19-19-15h17-17----------|.
E|---------------------------15h17-17----------------------------15h17-17-|.
B|------------------------------------------------------------------------|.
                                                                           . x2
G|---------------------------------------------------------------15-17-19-|.
D|17h19-19----------------------------------------------15-17-19----------|.
A|---------17h19-19-15h17-17-------------------15-17-19-------------------|.
E|---------------------------15h17-17-15-17-19----------------------------|.
B|------------------------------------------------------------------------|.


G|-----19----19h21-19----21h22p21-19----------------|
D|--------------------19-------------22-21-19-------|
A|--------------------------------------------22-20-|
E|--------------------------------------------------|
B|--------------------------------------------------|

G|------------------------------------------------------------------------|.
D|17h19-19----------------------------17h19-19----------------------------|.
A|---------17h19-19-15h17-17-------------------17h19-19-15h17-17----------|.
E|---------------------------15h17-17----------------------------15h17-17-|.
B|------------------------------------------------------------------------|.
                                                                           . x3
G|---------------------------------------------------------------15-17-19-|.
D|17h19-19----------------------------------------------15-17-19----------|.
A|---------17h19-19-15h17-17-------------------15-17-19-------------------|.
E|---------------------------15h17-17-15-17-19----------------------------|.
B|------------------------------------------------------------------------|.

G|------------------------------------------------------------------------|
D|17h19-19----------------------------17h19-19----------------------------|
A|---------17h19-19-15h17-17-------------------17h19-19-15h17-17----------|
E|---------------------------15h17-17----------------------------15h17-17-|
B|------------------------------------------------------------------------|

G|---------------------------------------------------------|
D|17h19-19----------------------------17h19-17-------------|
A|---------17h19-19-15h17-17-------------------17-20-17-19-|
E|---------------------------15h17-17----------------------|
B|---------------------------------------------------------|

            
            
Suggest correction
Creating personal tab
Creating personal tab
You can edit any tab online and save it as your Personal.

You can edit, replace or remove any tab part or add personal notes – all changes will be seen only by you.

Personal tabs can be accessed anytime from any device, even offline.
Learn more »
Give kudos to tab author, rate the tab!
1 2 3 4 5
comments
print report bad tab
5 comments total. Showing first comments.
+1 reply
AndreG1012 10 Sep 07, 2013 11:11 AM

Nice! Thanks.

0 reply
6METAL6BASSIST6 [tm] 24,349 Sep 09, 2013 12:18 AM

Thank you.

0 reply
6METAL6BASSIST6 [tm] 24,349 Sep 09, 2013 12:19 AM

And you're welcome lol.

guest
You may want to rate the tab now too:
select rating
Wanna post a correction for this tab? Suggest correction