Oops, an error
Loading. Please wait.

A Part Of Me Chords

version 1
version 1

Whole song

Interactive

229,015 views 1,048 this week
12 commentsread comments
1 2 3 4 5
excellent!
x 103
add to favorites
launch autoscroll
font size
0
reset
transpose
0
reset
simplify chords
display chords
guitar tuner
Tab Pro tools
  • play this tab
  • loop segment
  • change instrument
  • show fretboard
  • metronome
×
Best way to learn
"A Part Of Me"
Autoscroll
slow
fast
+/-
esc
set tempo
stop
Contributor
Artist: Neck Deep (http://www.facebook.com/neckdeeppoppunk)
Album: Rain In July
Track: A Part of Me (feat. Laura Whiteside)
Tuning: Standard, no capo

Updated 01/02/14 - open B and E strings added to chorus chords, thanks to users 
AsILayDying504 and King CJ

Updated 30/09/14 - lead guitar for chorus added, see bottom

Chords used:
   E*           A*         C#5 B5  A5  E5
E|--------0------------0---0---0---0---0--|
B|--------x------------x---0---0---0---0--|
G|-9--OR--1-----9--OR--1---6---4---2---9--|
D|-6------2-----6------2---6---4---2---9--|
A|-7------x-----7------0---4---2---0---7--|
E|-0------0-----5-------------------------|


[Intro]

E* A* E* A*


[Verse 1]

E*
I’ll paint you a picture with words, “I miss her.”
A*
We still talk like everyday
                                       E*
But we don’t talk in the same way that we used to
                                             A*
I’ll move on and forget you, we could never see eye to eye

But either way.


[Chorus 1]

A* (cont)                 C#5       B5            A5       
I like her ‘cause she’s smart, headstrong and independent,
                  C#5           B5               A5
She puts me in my place, but I don’t know where I stand,
                    C#5                 E5   B5      A5
And if only I could find the words, or muster up the nerve to tell her
                          B5                   A5
I’ll never forget her and she’ll always have a part of me.


[Verse 2]

E*                                  A*
Don’t let me go down this road again
                              E*
We both know where this ends
                                         A*
In a storm of feeling, I’m so unappealing

I can’t play these games


[Chorus 2]

A* (cont)                 C#5       B5            A5       
I like her ‘cause she’s smart, headstrong and independent,
                  C#5           B5               A5
She puts me in my place, but I don’t know where I stand,
                    C#5                 E5   B5      A5
And if only I could find the words, or muster up the nerve to tell her
                          B5                   A5
I’ll never forget her and she’ll always have a part of me.
                         C#5       B5            A5       
I like her ‘cause she’s smart, headstrong and independent,
                  C#5           B5               A5
She puts me in my place, but I don’t know where I stand,
                    C#5                 E5   B5      A5
And if only I could find the words, or muster up the nerve to tell her
                          B5                   A5
I’ll never forget her and she’ll always have a part of me.
C#5  B5   A5
          She'll always have a part of me.
C#5  B5   A5
          She'll always have a part of me.
C#5  E5 B5  A5      B5  A5


[Outro]

       C#5                            B5
I was falling for a girl who would ask me to come over
     A5
Just for a day, when her parents were away,
    C#5                 B5
Now all I can do is lay in my room,
        A5
Fall asleep, dream of you,

Then wake up and do nothing about it
   C#5                        B5                  A5
I fell for a boy who could never ever let me walk home that way,

‘Cause you gotta be safe,
     C#5                        B5
So hold back your views, we’re both leaving soon,
        A5
I can’t fall back on you,

‘Cause that’s not what I do.
    C#5                              B5
She hates it when I shout these word but I’ll still sing for you,
A5
I’ll still sing for you, I’ll still sing for you.
    C#5                              B5
She hates it when I shout these word but I’ll still sing for you,
A5
I’ll still sing for you, I’ll still sing for you.
    C#5                              B5
She hates it when I shout these word but I’ll still sing for you,
A5
I’ll still sing for you, I’ll still sing for you.
    C#5                              B5
She hates it when I shout these word but I’ll still sing for you,
A5
I’ll still sing for you, I’ll still sing for you.



Lead guitar for chorus 1 and chorus 2 (x3)
   C#5     B5       A5               C#5     B5      A5
e|----------------|----------------|----------------|----------------|
B|-9-------7------|-9-------109-7--|-9-------7------|----------------|
G|---9---9---9---9|---9---9-------9|---9---9---9---9|-8----9---------|
D|-----9-------9--|-----9----------|-----9-------9--|-----------9----|
A|----------------|----------------|----------------|----------------|
E|----------------|----------------|----------------|----------------|
   C#5     E5 B5    A5               B5              A5
e|---------7------|----------------|----------------|----------------|
B|-9-----------7--|-9-109-7--------|-7---7---9------|----------------|
G|---9---9---9---9|---------9------|-------------9--|----------------|
D|-----9----------|-------------9--|---9---9---9----|----------------|
A|----------------|----------------|----------------|----------------|
E|----------------|----------------|----------------|----------------|
                                   |
                                   |CHANGE TO THIS FOR LAST REPEAT OF CHORUS 2
                                   | B5              A5
                                   |----------------|----------------|
                                   |-9---9---7------|----------------|
                                   |-------------9--|----------------|
                                   |---9---9---9----|----------------|
                                   |----------------|----------------|
                                   |----------------|----------------|
comments
print report bad tab
12 comments total. Showing first comments.
0 reply
blader360deshi wrote on March 13 2013, 11:10 pm

if you watch him play it live he doesn't play the E5 cord at all even in the music video heres him playing it live http://www.youtube.com/watch?v=oykWPUZZ7Dw

+4 reply
VintageBassline wrote on March 14 2013, 10:30 am

Yes he didn't play it live in that video but you can quite clearly hear it on the studio version.

+2 reply
AsILayDying504 wrote on July 4 2013, 05:19 pm

Perfect! Good job man. The only thing is that I play open notes on the B and high E string. You can hear them in the song if you listen closely. And for the chorus I still play the open notes and just mute the G string. However, I'm not trying to say you're tab is incorrect or anything! Great job man. I love playing this.

I want to post or [tab]
guest
You may want to rate the tab now too:
select rating
Please do not post tabs as comments. Select "correction" instead!