Oops, an error
Loading. Please wait.

A Part Of Me tab

version 2
version 2

Whole song

Interactive

Video

4,584 views 30 this week
no commentswrite comment
1 2 3 4 5
x 7
add to favorites
×
Save as Personal and add changes to this tab that will be seen only by you. Learn more ›
×
You can save this tab as Personal to edit and correct it or add notes. All changes will be seen only by you. Learn more »
launch autoscroll
font size
0
reset
how to read this tab
guitar tuner
edit
Autoscroll
slow
fast
+/-
esc
set tempo
stop
Author
Tabbed By: Fabio BlenderBR



 Enjoy!


 - Intro: 

E   Asus2
E   Asus2



 - Verse 1:

E
I’ll paint you a picture with words, “I miss her.”
Asus2
We still talk like everyday
                                       E
But we don’t talk in the same way that we used to
                                             Asus2
I’ll move on and forget you, we could never see eye to eye, but either way



 - Chorus:

                         C#m       B             Asus2       
I like her ‘cause she’s smart, headstrong and independent,
                   C#m          B                 Asus2
She puts me in my place, but I don’t know where I stand,
                    C#m                 E     B      Asus2
And if only I could find the words, or muster up the nerve to tell her
                          B                    Asus2 
I’ll never forget her and she’ll always have a part of me.


   C#m     B        Asus2            C#m     B        Asus2
e|----------------|-----------------|----------------|----------------|
B|-9-------7------|-9-------10-9-7--|-9-------7------|----------------|
G|---9---9---9---9|---9---9-------9-|---9---9---9---9|-8----9---------|
D|-----9-------9--|-----9-----------|-----9-------9--|-----------9----|
A|----------------|-----------------|----------------|----------------|
E|----------------|-----------------|----------------|----------------|

   C#m     E  B     Asus2            B                Asus2
e|---------7------|-----------------|----------------|----------------|
B|-9-----------7--|-9-10-9-7--------|-7---7---9------|----------------|
G|---9---9---9---9|----------9------|-------------9--|----------------|
D|-----9----------|-------------9---|---9---9---9----|----------------|
A|----------------|-----------------|----------------|----------------|
E|----------------|-----------------|----------------|----------------|



 - Verse 2:

E                                Asus2
Don’t let me go down this road again
                            E
We both know where this ends
                                        Asus2
In a storm of feeling, I’m so unappealing

I can’t play these games



 - Chorus:

                         C#m       B             Asus2       
I like her ‘cause she’s smart, headstrong and independent,
                   C#m          B                 Asus2
She puts me in my place, but I don’t know where I stand,
                    C#m                 E     B      Asus2
And if only I could find the words, or muster up the nerve to tell her
                          B                    Asus2 
I’ll never forget her and she’ll always have a part of me.

   C#m     B        Asus2            C#m     B        Asus2
e|----------------|-----------------|----------------|----------------|
B|-9-------7------|-9-------10-9-7--|-9-------7------|----------------|
G|---9---9---9---9|---9---9-------9-|---9---9---9---9|-8----9---------|
D|-----9-------9--|-----9-----------|-----9-------9--|-----------9----|
A|----------------|-----------------|----------------|----------------|
E|----------------|-----------------|----------------|----------------|

   C#m     E  B     Asus2            B                Asus2
e|---------7------|-----------------|----------------|----------------|
B|-9-----------7--|-9-10-9-7--------|-7---7---9------|----------------|
G|---9---9---9---9|----------9------|-------------9--|----------------|
D|-----9----------|-------------9---|---9---9---9----|----------------|
A|----------------|-----------------|----------------|----------------|
E|----------------|-----------------|----------------|----------------|

                         C#m       B             Asus2       
I like her ‘cause she’s smart, headstrong and independent,
                   C#m          B                 Asus2
She puts me in my place, but I don’t know where I stand,
                    C#m                 E     B      Asus2
And if only I could find the words, or muster up the nerve to tell her
                          B                    Asus2
I’ll never forget her and she’ll always have a part of me.

   C#m     B        Asus2            C#m     B        Asus2
e|----------------|-----------------|----------------|----------------|
B|-9-------7------|-9-------10-9-7--|-9-------7------|----------------|
G|---9---9---9---9|---9---9-------9-|---9---9---9---9|-8----9---------|
D|-----9-------9--|-----9-----------|-----9-------9--|-----------9----|
A|----------------|-----------------|----------------|----------------|
E|----------------|-----------------|----------------|----------------|

   C#m     E  B     Asus2            B                Asus2
e|---------7------|-----------------|----------------|----------------|
B|-9-----------7--|-9-10-9-7--------|-7---7---9------|----------------|
G|---9---9---9---9|----------9------|-------------9--|----------------|
D|-----9----------|-------------9---|---9---9---9----|----------------|
A|----------------|-----------------|----------------|----------------|
E|----------------|-----------------|----------------|----------------|

C#m  B    Asus2
          She'll always have a part of me.
C#m  B    Asus2
          She'll always have a part of me.
C#m  E  B   Asus2    B   Asus2


   C#m     B        Asus2            C#m     B        Asus2
e|----------------|-----------------|----------------|----------------|
B|-9-------7------|-9-------10-9-7--|-9-------7------|----------------|
G|---9---9---9---9|---9---9-------9-|---9---9---9---9|-8----9---------|
D|-----9-------9--|-----9-----------|-----9-------9--|-----------9----|
A|----------------|-----------------|----------------|----------------|
E|----------------|-----------------|----------------|----------------|

   C#m     E  B     Asus2            B                Asus2
e|---------7------|-----------------|----------------|----------------|
B|-9-----------7--|-9-10-9-7--------|-9---9---7------|----------------|
G|---9---9---9---9|----------9------|-------------9--|----------------|
D|-----9----------|-------------9---|---9---9---9----|----------------|
A|----------------|-----------------|----------------|----------------|
E|----------------|-----------------|----------------|----------------|




 - Outro:

       C#m                            B
I was falling for a girl who would ask me to come over
     Asus2
Just for a day, when her parents were away,
    C#m                 B
Now all I can do is lay in my room,
        Asus2
Fall asleep, dream of you, Then wake up and do nothing about it
   C#m                        B                 Asus2
I fell for a boy who could never ever let me walk home that way, ‘Cause you gotta be safe,
     C#m                        B
So hold back your views, we’re both leaving soon,
        Asus2
I can’t fall back on you, ‘Cause that’s not what I do.

    C#m                              B
She hates it when I shout these word but I’ll still sing for you,
Asus2
I’ll still sing for you, I’ll still sing for you.
    C#m                              B
She hates it when I shout these word but I’ll still sing for you,
Asus2
I’ll still sing for you, I’ll still sing for you.

   C#m             B               Asus2
e|---------------|---------------|-------------------------|
B|--9-------9----|--7-------7----|-------------------------|
G|----9---9---9--|----9---9---9--|------9---9------9---9---|
D|------9--------|------9--------|--9-9---9----9-9---9-----|
A|---------------|---------------|-------------------------|      (2x)
E|---------------|---------------|-------------------------|

    C#m                              B
She hates it when I shout these word but I’ll still sing for you,
Asus2
I’ll still sing for you, I’ll still sing for you.
    C#m                              B
She hates it when I shout these word but I’ll still sing for you,
Asus2
I’ll still sing for you, I’ll still sing for you.

   C#m             B               Asus2
e|---------------|---------------|-------------------------|
B|--9-------9----|--7-------7----|-------------------------|
G|----9---9---9--|----9---9---9--|------9---9------9---9---|
D|------9--------|------9--------|--9-9---9----9-9---9-----|
A|---------------|---------------|-------------------------|      
E|---------------|---------------|-------------------------|

   C#m             B               Asus2
e|---------------|---------------|-------------------------|
B|--9-------9----|--7-------7----|-------------------------|
G|----9---9---9--|----9---9---9--|-------------------------|
D|------9--------|------9--------|-------------------------|
A|---------------|---------------|-------------------------|     
E|---------------|---------------|-------------------------|
__________
Hope you liked!

Tabbed by: Fabio BlenderBR

            
            
Suggest correction
Creating personal tab
Creating personal tab
You can edit any tab online and save it as your Personal.

You can edit, replace or remove any tab part or add personal notes – all changes will be seen only by you.

Personal tabs can be accessed anytime from any device, even offline.
Learn more »
comments
print report bad tab
guest
You may want to rate the tab now too:
select rating
Wanna post a correction for this tab? Suggest correction