Oops, an error
Loading. Please wait.

Cant Kick Up The Roots tab

version 2
version 2

Whole song

Interactive

1,214 views 21 this week
no commentswrite comment
1 2 3 4 5
2 more votes to show rating
add to favorites
×
Save as Personal and add changes to this tab that will be seen only by you. Learn more ›
×
You can save this tab as Personal to edit and correct it or add notes. All changes will be seen only by you. Learn more »
launch autoscroll
font size
0
reset
how to read this tab
guitar tuner
edit
Autoscroll
slow
fast
+/-
esc
set tempo
stop
-------------------------------------------------------------------------------
                            Neck Deep - Can't Kick Up The Roots
-------------------------------------------------------------------------------
Tabbed by: Chris


Tuning: Drop D
My Cover: https://www.youtube.com/watch?v=bAbgJV9SsEk

This song can be played in Drop C or Drop D (move it all up 2 frets for Drop C)

However I prefer to play it in Drop D

This is just the rhythm, I learnt it all by ear so please correct it if I've made mistakes and help me out :)

Intro
e|----------------------------------------------------------------------------------------|
B|----------------------------------------------------------------------------------------|
G|----------------------------------------------------------------------------------------|
D|-1-1---1\8-6-6---6-8-1-1---1-8-6-6--6p5h6\8/1---1-1---1-8-6-6---6-8-1-1---1-8-10-8-6~---|
A|-1-1---1\8-6-6---6-8-1-1---1-8-6-6--6p5h6\8/1---1-1---1-8-6-6---6-8-1-1---1-8-10-8-6~---|
D|-1-1---1\8-6-6---6-8-1-1---1-8-6-6--6p5h6\8/1---1-1---1-8-6-6---6-8-1-1---1-8-10-8-6~---|

Verse is bass mainly and some lead 

Pre (comes in at 0:31) 
e|----------------------------------------------------------------------------|
B|----------------------------------------------------------------------------|
G|----------------------------------------------------------------------------|
D|-10-8-6--6-5-6\8--10-10-8-8-8-8-6-6-1-1-1-1-10-10-8-8-8-8-10-8-6--6p5h6\8/1-|
A|-10-8-6--6-5-6\8--10-10-8-8-8-8-6-6-1-1-1-1-10-10-8-8-8-8-10-8-6--6p5h6\8/1-|
D|-10-8-6--6-5-6\8--10-10-8-8-8-8-6-6-1-1-1-1-10-10-8-8-8-8-10-8-6--6p5h6\8/1-|

Chorus
e|----------------------------------------------------------------------------------------|
B|----------------------------------------------------------------------------------------|
G|----------------------------------------------------------------------------------------|
D|-1-1---1-8-6-6---6-8-1-1---1-8-6-6--6p5h6\8/1---1-1---1-8-6-6---6-8-1-1---1-8-10-8-6~---|
A|-1-1---1-8-6-6---6-8-1-1---1-8-6-6--6p5h6\8/1---1-1---1-8-6-6---6-8-1-1---1-8-10-8-6~---|
D|-1-1---1-8-6-6---6-8-1-1---1-8-6-6--6p5h6\8/1---1-1---1-8-6-6---6-8-1-1---1-8-10-8-6~---|

Verse 2 (from 1:06)
**pickslide from 14 to 1** into this
e|----------------------------------------|
B|----------------------------------------|
G|----------------------------------------|
D|-1-----8-----6-----10-------------------|
A|-1-----8-----6-----10-------------------|
E|-1(x8)-8(x8)-6(x8)-10(x8)---------------|

e|---------------------------------------------------------------------------|
B|---------------------------------------------------------------------------|
G|---------------------------------------------------------------------------|
D|-10-8-6--6-5-6\8--10-10-8-8-8-8-6-6-1-1-1-1---10-10-8-8-8-8-6-6-1-1-1-1----|
A|-10-8-6--6-5-6\8--10-10-8-8-8-8-6-6-1-1-1-1---10-10-8-8-8-8-6-6-1-1-1-1----|
D|-10-8-6--6-5-6\8--10-10-8-8-8-8-6-6-1-1-1-1---10-10-8-8-8-8-6-6-1-1-1-1----|

e|------------------------------------------------------------------|
B|------------------------------------------------------------------|
G|------------------------------------------------------------------|
D|-10-10-8-8-8-8-6-6-1-1-1-1---10-10-10-10-8-8-8-8-6-6-6-6-8-x-x----|
A|-10-10-8-8-8-8-6-6-1-1-1-1---10-10-10-10-8-8-8-8-6-6-6-6-8-x-x----|
D|-10-10-8-8-8-8-6-6-1-1-1-1---10-10-10-10-8-8-8-8-6-6-6-6-8-x-x----|

Chorus
e|----------------------------------------------------------------------------------------|
B|----------------------------------------------------------------------------------------|
G|----------------------------------------------------------------------------------------|
D|-1-1---1-8-6-6---6-8-1-1---1-8-6-6--6p5h6\8/1---1-1---1-8-6-6---6-8-1-1---1-8-10-8-6~---|
A|-1-1---1-8-6-6---6-8-1-1---1-8-6-6--6p5h6\8/1---1-1---1-8-6-6---6-8-1-1---1-8-10-8-6~---|
D|-1-1---1-8-6-6---6-8-1-1---1-8-6-6--6p5h6\8/1---1-1---1-8-6-6---6-8-1-1---1-8-10-8-6~---|

Bridge
e|---------------------------------------------------------------------------|
B|---------------------------------------------------------------------------|
G|---------------------------------------------------------------------------|
D|-10-8-6-3-1-3-1-----------3-3-1-1-\-{10-8-6-3-1-3-1----------3-3}----------|
A|-10-8-6-3-1-3-1-----------3-3-1-1-\-{10-8-6-3-1-3-1----------3-3}----------|
D|-10-8-6-3-1-3-1-(each 4x)-3-3-1-1-\-{10-8-6-3-1-3-1-(each 4x)3-3}-x2-------|

Lightly then kicks into chorus:
e|----------------------------------------------------------------------------------------|
B|----------------------------------------------------------------------------------------|
G|----------------------------------------------------------------------------------------|
D|-1-1---1-8-6-6---6-8-1-1---1-8-6-6--6p5h6\8/1---1-1---1-8-6-6---6-8-1-1---1-8-10-8-6~---|
A|-1-1---1-8-6-6---6-8-1-1---1-8-6-6--6p5h6\8/1---1-1---1-8-6-6---6-8-1-1---1-8-10-8-6~---|
D|-1-1---1-8-6-6---6-8-1-1---1-8-6-6--6p5h6\8/1---1-1---1-8-6-6---6-8-1-1---1-8-10-8-6~---|

Outro (I'm not stuck...)
e|-------------------------------------------------------------------------------------|
B|-------------------------------------------------------------------------------------|
G|-------------------------------------------------------------------------------------|
D|-{1-1-1-1-8-8-8-8-10-10-10-10-6-6-6-6-}------1-1-1-1-8-8-8-8-10-8-6~-6p5h6\8-6-5-1---|
A|-{1-1-1-1-8-8-8-8-10-10-10-10-6-6-6-6-}------1-1-1-1-8-8-8-8-10-8-6~-6p5h6\8-6-5-1---|
D|-{1-1-1-1-8-8-8-8-10-10-10-10-6-6-6-6-}x3----1-1-1-1-8-8-8-8-10-8-6~-6p5h6\8-6-5-1---|

************************************

| /   slide up
| \   slide down
| h   hammer-on
| p   pull-off
| ~   vibrato
| +   harmonic
| x   Mute note
| b   Bend
| pb  Pre-bend
| br  Bend release
| pbr Pre-bend release
| brb Bend release bend

************************************
Suggest correction
Creating personal tab
Creating personal tab
You can edit any tab online and save it as your Personal.

You can edit, replace or remove any tab part or add personal notes – all changes will be seen only by you.

Personal tabs can be accessed anytime from any device, even offline.
Learn more »
Give kudos to tab author, rate the tab!
1 2 3 4 5
comments
print report bad tab
guest
You may want to rate the tab now too:
select rating
Wanna post a correction for this tab? Suggest correction