Oops, an error
Loading. Please wait.

Happy Judgement Day tab

version 1
version 1

Whole song

4,081 views 435 this week
1 commentread comment
1 2 3 4 5
x 5
add to favorites
×
Save as Personal and add changes to this tab that will be seen only by you. Learn more ›
×
You can save this tab as Personal to edit and correct it or add notes. All changes will be seen only by you. Learn more »
launch autoscroll
font size
0
reset
how to read this tab
guitar tuner
edit
Autoscroll
slow
fast
+/-
esc
set tempo
stop
[Intro]
D#|--0---0--0---0--0---0-0--0--0---0----0---0-----0----0----------------------|
A#|-13--13-12--12-10--10-8--8/10---5----5---3/5---5----3/5\3p0----------------|
F#|---------------------------------------------------------------------------| 4 times
C#|---------------------------------------------------------------------------|
G#|---------------------------------------------------------------------------|
C#|---------------------------------------------------------------------------|

[Verse]
D#|---------------------------------------------------------------------------|
A#|---------------------------------------------------------------------------|
F#|-10-10-10--10-7-7-7---7-9-9-9----9-------------10-10-10--10-12-12-12--12---|
C#|---------------------------------------------------------------------------|
G#|-8--8--8----8-5-5-5---5-7-7-7----7---2-3-2------8--8--8---8-10-10-10--10---|
C#|--------------------------------------------5------------------------------|

D#|---------------------------------------------------------------------------|
A#|---------------------------------------------------------------------------|
F#|-5-5-5---5-------------5-5-5---3-3-3---2-2-2-------------------------------|
C#|-----------------------5-5-5---3-3-3---2-2-2--3-3-3--3-3-3--5-5-5-5-5-5-5--|
G#|-3-3-3---3---2-3-2-----3-3-3---1-1-1---0-0-0--3-3-3--3-3-3--5-5-5-5-5-5-5--|
C#|-------------------5--------------------------3-3-3--3-3-3--5-5-5-5-5-5-5--|

[Chorus]
D#|---------------------------------------------------------------------------|
A#|---------------------------------------------------------------------------|
F#|------5-5-5-5-5-5-5--4-4-4-4-4-4-4--2-2-2-2-2-2-2--------------------------|
C#|-5-5--5-5-5-5-5-5-5--5-5-5-5-5-5-5--2-2-2-2-2-2-2--2-2-2-2-2-2-2-2---------|
G#|-5-5--3-3-3-3-3-3-3--2-2-2-2-2-2-2--0-0-0-0-0-0-0--2-2-2-2-2-2-2-2---------|
C#|-5-5-----------------------------------------------2-2-2-2-2-2-2-2---------|

D#|---------------------------------------------------------------------------|
A#|---------------------------------------------------------------------------|
F#|-----------------5-5-5-5-5-5-5------------------------2-2-2-2-2-2-2--------|
C#|-3-3-3-3-3-3-3---5-5-5-5-5-5-5--5-5-5-5-5-5-5--6--6---2-2-2-2-2-2-2--------|
G#|-3-3-3-3-3-3-3---3-3-3-3-3-3-3--5-5-5-5-5-5-5--6--6---0-0-0-0-0-0-0--------|
C#|-3-3-3-3-3-3-3------------------5-5-5-5-5-5-5--6--6------------------------|

D#|---------------------------------------------------------------------------|
A#|---------------------------------------------------------------------------|
F#|-4-4-4-4-4-4-4--5-5-5-5-5-5-5---------------------------5-5-5-5-5-5-5------|
C#|-5-5-5-5-5-5-5--5-5-5-5-5-5-5--2--2--5---3-3-3-3-3-3-3--5-5-5-5-5-5-5--5---|
G#|-2-2-2-2-2-2-2--3-3-3-3-3-3-3--2--2--5---3-3-3-3-3-3-3--3-3-3-3-3-3-3--5---|
C#|-------------------------------2--2--5---3-3-3-3-3-3-3-----------------5---|

[Interlude]
D#|--0---0--0---0--0---0-0--0--0---0----0---0-----0----0----------------------|
A#|-13--13-12--12-10--10-8--8/10---5----5---3/5---5----3/5\3p0----------------|
F#|---------------------------------------------------------------------------| 2 times
C#|---------------------------------------------------------------------------|
G#|---------------------------------------------------------------------------|
C#|---------------------------------------------------------------------------|

[Verse 2]
D#|-----------3-3-3-3-------------------------------3-3-3-3-------------------|
A#|-6-6-6-6---3-3-3-3---5-5-5-5------------6-6-6-6--3-3-3-3--5-5-5-5----------|
F#|-5-5-5-5-------------5-5-5-5------------5-5-5-5-----------5-5-5-5----------|
C#|---------------------------------------------------------------------------|
G#|-------------------------------2-3-2-------------------------------2-3-2---|
C#|-------------------------------------5-----------------------------------5-|

D#|-------------------------------------------------------------------------------|
A#|-------------------------------------------------------------------------------|
F#|-------------------------------------------------------------------------------|
C#|-3-3-3--3-3-3--5-5-5--5-5-5--5-5-5--3-3-3--2-2-2--2-2-2--3-3-3-5-5-5-5-5-5-5-5-|
G#|-3-3-3--3-3-3--5-5-5--5-5-5--3-3-3--1-1-1--0-0-0--0-0-0--3-3-3-5-5-5-5-5-5-5-5-|
C#|-3-3-3--3-3-3--5-5-5--5-5-5------------------------------3-3-3-5-5-5-5-5-5-5-5-|

[Chorus]
D#|---------------------------------------------------------------------------|
A#|---------------------------------------------------------------------------|
F#|------5-5-5-5-5-5-5--4-4-4-4-4-4-4--2-2-2-2-2-2-2--------------------------|
C#|-5-5--5-5-5-5-5-5-5--5-5-5-5-5-5-5--2-2-2-2-2-2-2--2-2-2-2-2-2-2-2---------|
G#|-5-5--3-3-3-3-3-3-3--2-2-2-2-2-2-2--0-0-0-0-0-0-0--2-2-2-2-2-2-2-2---------|
C#|-5-5-----------------------------------------------2-2-2-2-2-2-2-2---------|

D#|---------------------------------------------------------------------------|
A#|---------------------------------------------------------------------------|
F#|-----------------5-5-5-5-5-5-5------------------------2-2-2-2-2-2-2--------|
C#|-3-3-3-3-3-3-3---5-5-5-5-5-5-5--5-5-5-5-5-5-5--6--6---2-2-2-2-2-2-2--------|
G#|-3-3-3-3-3-3-3---3-3-3-3-3-3-3--5-5-5-5-5-5-5--6--6---0-0-0-0-0-0-0--------|
C#|-3-3-3-3-3-3-3------------------5-5-5-5-5-5-5--6--6------------------------|

D#|---------------------------------------------------------------------------|
A#|---------------------------------------------------------------------------|
F#|-4-4-4-4-4-4-4--5-5-5-5-5-5-5---------------------------5-5-5-5-5-5-5------|
C#|-5-5-5-5-5-5-5--5-5-5-5-5-5-5--2--2--5---3-3-3-3-3-3-3--5-5-5-5-5-5-5--5---|
G#|-2-2-2-2-2-2-2--3-3-3-3-3-3-3--2--2--5---3-3-3-3-3-3-3--3-3-3-3-3-3-3--5---|
C#|-------------------------------2--2--5---3-3-3-3-3-3-3-----------------5---|

[Bridge]
D#|---------------------------------------------------------------------------|
A#|-5-5-5-5-5-5-5-5-5-5-5-5-5-5-5-5-5-5-5-5----------8---------3--------1-----|
F#|-6-6-6-6-6-6-6-6-6-6-6-6-6-6-6-6-6-6-6-6-------5---------4--------2--------|
C#|-7-7-7-7-7-7-7-7-7-7-7-7-7-7-7-7-7-7-7-7----7---------5--------3-----------|
G#|-0-0-0-0-0-0-0-0-0-0-0-0-0-0-0-0-0-0-0-0-----------------------------------|
C#|---------------------------------------------------------------------------|

D#|--------------------------------------------------------------------------------|
A#|-------3---------8---------3---------1---------3--------------------------------|
F#|----4---------5---------4---------2---------4-----------------------------------|
C#|-5---------7---------5---------3---------5----------7-7-7--2-2-2--3-3-3--5-5-5--|
G#|----------------------------------------------------7-7-7--2-2-2--3-3-3--5-5-5--|
C#|----------------------------------------------------7-7-7--2-2-2--3-3-3--5-5-5--|

D#|---------------------------------------------------------------------------|
A#|---------------------------------------------------------------------------|
F#|---------------------------------------------------------------------------|
C#|-7-7-7--2-2-2--3-3-3-3-3-3-3--5-5-5-5-5-5-5-5-5----------------------------|
G#|-7-7-7--2-2-2--3-3-3-3-3-3-3--5-5-5-5-5-5-5-5-5----------------------------|
C#|-7-7-7--2-2-2--3-3-3-3-3-3-3--5-5-5-5-5-5-5-5-5----------------------------|

D#|--0---0--0---0--0---0-0--0--0---0----0---0-----0----0----------------------|
A#|-13--13-12--12-10--10-8--8/10---5----5---3/5---5----3/5\3p0----------------|
F#|---------------------------------------------------------------------------| 4 times
C#|---------------------------------------------------------------------------|
G#|---------------------------------------------------------------------------|
C#|---------------------------------------------------------------------------|

[Final Chorus]
D#|---------------------------------------------------------------------------|
A#|-5-5-5-5-5-5-5-5-5-5-5-5-5-5-5-5----3-3-3-3-3-3-3-3---3-3-3-3-3-3-3-3------|
F#|-6-6-6-6-6-6-6-6-6-6-6-6-6-6-6-6----2-2-2-2-2-2-2-2---2-2-2-2-2-2-2-2------|
C#|-7-7-7-7-7-7-7-7-7-7-7-7-7-7-7-7----0-0-0-0-0-0-0-0---0-0-0-0-0-0-0-0------|
G#|-0-0-0-0-0-0-0-0-0-0-0-0-0-0-0-0----------------------4-4-4-4-4-4-4-4------|
C#|---------------------------------------------------------------------------|

D#|---------------------------------------------------------------------------|
A#|---------------------------------------------------------------------------|
F#|-4-4-4-4-4-4-4-4-----------------------------------------------------------|
C#|-4-4-4-4-4-4-4-4--4-4-4-4-4-4-4-4--5-5-5-5-5-5-5-5--0-0-0-0-0-0-0-0--------|
G#|-2-2-2-2-2-2-2-2--4-4-4-4-4-4-4-4--5-5-5-5-5-5-5-5--0-0-0-0-0-0-0-0--------|
C#|------------------4-4-4-4-4-4-4-4--5-5-5-5-5-5-5-5--0-0-0-0-0-0-0-0--------|

D#|---------------------------------------------------------------------------|
A#|---------------------------------------------------------------------------|
F#|-------------------------4-4-4-4-4-4-4-4--6-6-6-6-6-6-6-6------------------|
C#|-7-7-7-7-7-7-7-7--8--8---4-4-4-4-4-4-4-4--7-7-7-7-7-7-7-7--0-0-0-0-0-0-0-0-|
G#|-7-7-7-7-7-7-7-7--8--8---2-2-2-2-2-2-2-2--4-4-4-4-4-4-4-4--0-0-0-0-0-0-0-0-|
C#|-7-7-7-7-7-7-7-7--8--8-------------------------------------0-0-0-0-0-0-0-0-|

D#|---------------------------------------------------------------------------|
A#|---------------------------------------------------------------------------|
F#|---------------------------------------------------------------------------|
C#|-4--4--4-7---5-5-5-5-5-5-5-5--0-0-0-0-0-0-0-0---7-7-7-7-7-7-7-7------------|
G#|-4--4--4-7---5-5-5-5-5-5-5-5--0-0-0-0-0-0-0-0---7-7-7-7-7-7-7-7------------|
C#|-4--4--4-7---5-5-5-5-5-5-5-5--0-0-0-0-0-0-0-0---7-7-7-7-7-7-7-7------------|

D#|---------------------------------------------------------------------------|
A#|---------------------------------------------------------------------------|
F#|---------------------------------------------------------------------------|
C#|-2-2-2-2-2-2-2-2--0-0-0-0-0-0-0-0---7-7-7-7-7-7-7-7------------------------|
G#|-2-2-2-2-2-2-2-2--0-0-0-0-0-0-0-0---7-7-7-7-7-7-7-7------------------------|
C#|-2-2-2-2-2-2-2-2--0-0-0-0-0-0-0-0---7-7-7-7-7-7-7-7------------------------|

[Outro]
D#|--0---0--0---0--0---0-0---0--0----0----0---0-----0----0--------------------|
A#|-15--15-14--14-12--12-10--12/10---7----7---5/7---7----5/7\5p0--------------|
F#|---------------------------------------------------------------------------|
C#|---------------------------------------------------------------------------|
G#|---------------------------------------------------------------------------|
C#|---------------------------------------------------------------------------|

D#|--0---0--0---0--0---0-0---0--0----0----------------------------------------|
A#|-15--15-14--14-12--12-10--12/10---7----------------------------------------|
F#|---------------------------------------------------------------------------|
C#|---------------------------------------------------------------------------|
G#|---------------------------------------------------------------------------|
C#|---------------------------------------------------------------------------|

************************************
| /   Slide up
| \   Slide down
************************************
Suggest correction
Creating personal tab
Creating personal tab
You can edit any tab online and save it as your Personal.

You can edit, replace or remove any tab part or add personal notes – all changes will be seen only by you.

Personal tabs can be accessed anytime from any device, even offline.
Learn more »
comments
print report bad tab
1 comment total.
0 reply
homieno1 10 May 25, 2017 01:12 PM

palm mutes in verse 1 are omitted

guest
You may want to rate the tab now too:
select rating
Wanna post a correction for this tab? Suggest correction