Oops, an error
Loading. Please wait.

I Hope This Comes Back To Haunt You bass

version 1
version 1

Whole song

Interactive

1,557 views 21 this week
no commentswrite comment
1 2 3 4 5
x 3
add to favorites
×
Save as Personal and add changes to this tab that will be seen only by you. Learn more ›
×
You can save this tab as Personal to edit and correct it or add notes. All changes will be seen only by you. Learn more »
launch autoscroll
font size
0
reset
guitar tuner
edit
Autoscroll
slow
fast
+/-
esc
set tempo
stop
Neck Deep - I Hope This Comes Back to Haunt You

Tabbed by: Ashy (XxThreeCheersxX)
E-mail: burdickash@gmail.com

Tuning: Drop C

This was a relatively hard song to tab, any comments or suggestions are appreciated!
The only part I'm unsure about is the chorus.

Intro
F|----------------------------------------------------------------8~--------|
C|------------------------------------------------------8~------------------|
G|1~----------------3~----------------6~------------------------------------|
C|--------------------------------------------------------------------------|

F|----------------------------------------------------------------8---------|
C|------------------------------------------------------8~-------------8----|
G|1~----------------3~----------------6~------------------------------------|
C|--------------------------------------------------------------------------|

F|------------------10------8------7--------------------8------7------5-----|
C|-5--7--8~-----------------------------3--5--7~----------------------------|
G|--------------------------------------------------------------------------|
C|--------------------------------------------------------------------------|

F|--------------------------------------------------------------------------|
C|-------8----------8----------8----------8----------8----------8-----------|
G|-6--6-------6--6-------6--6-------6--6-------6--6-------6--6-------6~-----|
C|--------------------------------------------------------------------------|

Verse I
F|-----------------------------------------------------------------|
C|-----------------------------------------------------------------|
G|-1-1-1-1-1-1-1-1-1-1-1-1-1-1-1-1-3-3-3-3-3-3-3-3-3-3-3-3-3-3-3-3-|
C|-----------------------------------------------------------------|

F|-----------------------------------------------------------------|
C|-----------------------------------------------------------------|
G|-6-6-6-6-6-6-6-6-6-6-6-6-6-6-6-6-6-6-6-6-6-6-6-6-6-6-6-6-6-6-6-6-|
C|-----------------------------------------------------------------|

F|-----------------------------------------------------------------|
C|-5-5-5-5-5-5-5-5-5-5-5-5-5-5-5-5---------------------------------|
G|---------------------------------8-8-8-8-8-8-8-8-8-8-8-8-8-8-8-8-|
C|-----------------------------------------------------------------|

F|-----------------------------------------------------------------|
C|-----------------------------------------------------------------|
G|-6-6-6-6-6-6-6-6-6-6-6-6-6-6-6-6-6-6-6-6-6-6-6-6-6-6-6-6-6x------|
C|-----------------------------------------------------------------|

Chorus (note: there may be a bass riff in the chorus, but it's very hard to hear on my mp3; if i figure it 
out i'll come back and edit this)
F|-------------------------------------|
C|-5--5----5---------------------------|
G|-----------6-6-6-6-1--1----1-1-1-1-1-| x 3
C|-------------------------------------|

F|-------------------------------------|
C|-5--5----5---------------------------|
G|-----------6-6-6-6-1-1-1-1-1-1-1x----| 
C|-------------------------------------|

Verse II
F|-------------------------------------------------------------------|
C|---------------------------------------15------13------12----------|
G|-1~----------------/15--17--13~----------------------------15--17--|
C|-------------------------------------------------------------------|

F|----------------------------------------|
C|------------15------13------12----------|
G|-13~----------------------------15--17--| x 2
C|----------------------------------------|

F|--------------------------------|
C|------------15------12------13--|
G|-13~----------------------------|
C|--------------------------------|

Chorus (same as before)

Bridge
F|-------------------------------------------------------|
C|-------------------------------------------------------|
G|-1-1-1-1-1-1-1-1-1-1-1-1-1///13-13-13-13-13x----13x----|
C|-------------------------------------------------------|

F|------------------------------------------------|
C|------------------------------------------------|
G|-1~----------------1x----1x---------------------|
C|------------------------------------------------|

F|-----------------------------------------------------------------|
C|------------15--12----13~-------------------15--12----13~--------|
G|-/13~----------------------------13~-----------------------------|
C|-----------------------------------------------------------------|

Outro
F|---------------------------------------------------------------------------------|
C|---------3--3----1--1--1--1--1--1--1--1----------3--3----1--1--1--1--1--0--1--3--|
G|-1--1------------------------------------1--1------------------------------------| x repeat until fades out
C|---------------------------------------------------------------------------------|

Happy playing!

| /  slide up
| \  slide down
| h  hammer-on
| p  pull-off
| ~  vibrato
| +  harmonic
| x  Mute note
===============================================================================
Suggest correction
Creating personal tab
Creating personal tab
You can edit any tab online and save it as your Personal.

You can edit, replace or remove any tab part or add personal notes – all changes will be seen only by you.

Personal tabs can be accessed anytime from any device, even offline.
Learn more »
Give kudos to tab author, rate the tab!
1 2 3 4 5
comments
print report bad tab
guest
You may want to rate the tab now too:
select rating
Wanna post a correction for this tab? Suggest correction