Oops, an error
Loading. Please wait.

Kali Ma Tab

version 2
version 2

Whole song

  • Much better chords and tabs for the whole song.
472 views 39 this week
no commentswrite comment
1 2 3 4 5
3 more votes to show rating
add to favorites
launch autoscroll
font size
0
reset
how to read this tab
guitar tuner
Autoscroll
slow
fast
+/-
esc
set tempo
stop
Help us to improve Ultimate-Guitar.com Take our survey!
×
Author
Difficulty
Tuning
intermediate
C# G# E B F# C#
About this tab version
Much better chords and tabs for the whole song. Was this info helpful? Yes No
---------------------------------------------------------------------------------------
                                  Kali Ma - Neck Deep
---------------------------------------------------------------------------------------
Author: dwi.syafaradis55@gmail.com
        https://www.youtube.com/DwiSyafaradis

Tuning: C# STANDARD with the high E tuned to B
I learned the tab of this song by my ear. So, sorry. This is really rough tab.
            
[Intro]

C#|-------7---7---7--------------------------------------------------------------------|
G#|-4-/-5---5---5---5\-----------------------------------------------------------------|
E |------------------------------------------------------------------------------------|
b |------------------------------------------------------------------------------------|
F#|------------------------------------------------------------------------------------|
B |------------------------------------------------------------------------------------|


[Chorus]

[0:02]

PM--------------*--*--*----------------------------------------------------------------|
C#|---------------------------------------------------|--------------------------------|
G#|---------------------------------------------------|--------------------------------|
E |-11--13---9--11-11-11---11---11--11-11--13---9-----|-11--13-13-13-13-13---11-11---9-|  
b |-x-/-xx-\-x--x--x--x----x----x---x--x-/-xx-\-x-(x3)|-x-/-xx-xx-xx-xx-xx-\-x--x--\-x-|
F#|-9---11---7--9--9--9----9----9---9--9---11---7-----|-9---11-11-11-11-11---9--9----7-|
B |---------------------------------------------------|--------------------------------|  (x2)


[Verse 1]

[0:20] 

C#|-7p0-4p0-2h4p0-7p0-4p0-2h4p0-2p0-|-9p0-4p0-2h4p0-7p0-4p0-2-4h5h4p0------------------| |    |
G#|---------------------------------|--------------------------------------------------| |    |
E |---------------------------------|--------------------------------------------------| |    |
b |---------------------------------|--------------------------------------------------| |    |
F#|---------------------------------|--------------------------------------------------| |    |
B |---------------------------------|--------------------------------------------------| |    |
                                                                                         |(x2)|
C#|-7p0-4p0-2h4p0-7p0-4p0-2h4p0-2p0-|-5p0-4p0-2p0-------7p0----------------------------| |    |
G#|---------------------------------|-------------5h4p0-----5h4p0-5--------------------| |    |
E |---------------------------------|--------------------------------------------------| |    |
b |---------------------------------|--------------------------------------------------| |    |
F#|---------------------------------|--------------------------------------------------| |    |
B |---------------------------------|--------------------------------------------------| |    |


[Pre-Chorus]

[0:40]

C#|-----------------7------------------------------------------------------------------|
G#|-5-7---5---4-5----------------------------------------------------------------------|
E |------------------------------------------------------------------------------------|
b |------------------------------------------------------------------------------------|
F#|------------------------------------------------------------------------------------|
B |------------------------------------------------------------------------------------|  (x8)


[0:58 Back to Chorus]


[Verse 2]

[1:27]

C#|------------------------------------------------------------------------------------|
G#|-5-7h9---5-7h9---5-7h9-9/10h9-7\5---------------------------------------------------|
E |------------------------------------------------------------------------------------|
b |------------------------------------------------------------------------------------|
F#|------------------------------------------------------------------------------------|
B |------------------------------------------------------------------------------------|  (x4)

C#|------------------------------------------------------------------------------------|
G#|-10------13------18------17------13-------------------------------------------------|
E |-x--(x8)-xx-(x8)-xx-(x4)-xx-(x4)-xx-(x8)--------------------------------------------|
b |-6-------10------15------14------10-------------------------------------------------|
F#|------------------------------------------------------------------------------------|
B |------------------------------------------------------------------------------------|

C#|---------------------------------|--------------------------------------------------|
G#|-------------------------13------|--------------------------------------------------|
E |-13------11------9)------xx-(x4)-|-13------11------9)-------------------------------|
b |-xx-(x4)-x--(x4)-x--(x4)-10------|-xx-(x4)-x--(x4)-x--(x5)--------------------------|
F#|-11------9-------7---------------|-11------9-------7--------------------------------|
B |---------------------------------|--------------------------------------------------|


[1:55 Back to Chorus, but this time repeat it until 3 times]


[Bridge]

[2:23]

C#|--------------------------------|---------------------------------------------------|
G#|--------------------------------|---------------------------------------------------|
E |-8---9--9---9--9---9---8---9--9-|-8---9--9---9--9---9---13---14---13----------------|
b |-x-/-x--x---x--x---x---x-/-x--x-|-x-/-x--x---x--x---x---xx-/-xx-\-xx----------------|
F#|-6---7--7---7--7---7---6---7--7-|-6---7--7---7--7---7---11---12---11----------------|
B |--------------------------------|---------------------------------------------------|  (x3)

C#|--------------------------------|---------------------------------------------------|
G#|--------------------------------|---------------------------------------------------|
E |-8---9--9---9--9---9---8---9--9-|-8---9--9---9--9-----------------------------------|
b |-x-/-x--x---x--x---x---x-/-x--x-|-x-/-x--x---x--x-\---------------------------------|
F#|-6---7--7---7--7---7---6---7--7-|-6---7--7---7--7-----------------------------------|
B |--------------------------------|---------------------------------------------------|


[Outro]

[2:41 You can either continue with the Bridge without any repetition or play this Outro]

C#|-------7---7---7---7---7---7---7---7-|-------7---7---7---7---7---7-7----------------|
G#|-4-/-5---5---5---5---5---5---5---5---|-4-/-5---5---5---5---5---5---5----------------|
E |-------------------------------------|----------------------------------------------|
b |-------------------------------------|----------------------------------------------|
F#|-------------------------------------|----------------------------------------------|
B |-------------------------------------|----------------------------------------------|


************************************

| PM (*)  Palm mute
| x       Dead note
| h       Hammer-on
| p       Pull-off
| >       Accented note
| /       Slide up
| \       Slide down

************************************
Suggest correction
Give kudos to tab author, rate the tab!
1 2 3 4 5
comments
print report bad tab
guest
You may want to rate the tab now too:
select rating
Wanna post a correction for this tab? Suggest correction