Oops, an error
Loading. Please wait.

Lifes Not Out To Get You album bass

2,423 views 30 this week
no commentswrite comment
1 2 3 4 5
x 7
add to favorites
×
Save as Personal and add changes to this tab that will be seen only by you. Learn more ›
×
You can save this tab as Personal to edit and correct it or add notes. All changes will be seen only by you. Learn more »
launch autoscroll
font size
0
reset
guitar tuner
edit
Autoscroll
slow
fast
+/-
esc
set tempo
stop
Neck Deep - Life's Not Out To Get You

Tabbed by: Ashy (XxThreeCheersxX)

Email: burdickash@gmail.com

ALL SONGS ARE IN DROP C (C G C F) TUNING!  

All songs were also tabbed out by ear by myself, and have also been posted individually on this site.

If you have any suggestions/corrections, feel free to leave a comment or email me.

TRACKLIST:
1. Citizens of Earth
2. Threat Level Midnight
3. Can't Kick Up The Roots
4. Kali Ma
5. Gold Steps
6. Lime St.
7. Serpents
8. The Beach is For Lovers (Not Lonely Losers)
9. December
10. Smooth Seas Don't Make Good Sailors
11. I Hope This Comes Back To Haunt You
12. Rock Bottom



TRACK 1 - CITIZENS OF EARTH



Chorus/Main Riff x 2
F|----------------------------------------------------------------------|
C|----------------------------------------------------------------------|
G|-0-0-----3-3----------3/5------------0-0----3-3---------3/5-----------| 
C|----------------3------------5-5-5-5---------------3-----------5-5/7--|

Verse I
F|----------------------------------------------|
C|----------------------------------------------|
G|-0-0-0x------------------0-0-0x---------------|
C|----------------------------------------------|

F|-----------------------------------------------------------------|
C|-----------------------------------------------------------------|
G|-0-0-0-0-0-0-0-0-0-0-0-0-0-0-0-0-3-3-3-3-3-3-3-3-----------------|
C|-------------------------------------------------3-3-3-3-3-3-3-3-|

F|---------------------------------|
C|---------------------------------|
G|-0-0-0-0-0-0-0-0-0-0-0-0-0-0-0-0-| x 2
C|---------------------------------|

F|-----------------------------------------------------------------|
C|-----------------------------------------------------------------|
G|-0-0-0-0-0-0-0-0-0-0-0-0-0-0-0-0-3-3-3-3-3-3-3-3-----------------|
C|-------------------------------------------------3-3-3-3-3-3-3-3-|

Chorus/Main Riff x 2

-brief break-

Verse II
F|-------------------------------------------------------------|
C|-------------------------------------------------------------|
G|-0-0----3--/7--5-5----5-7-5-3-3-0-0----3--/7--5-5---5-7-5----| x 2
C|----------------------------------------------------------5--|

F|-----------------------------------------------------------------|
C|-----------------------------------------------------------------|
G|-0-0-0-3-3-3-7-7-5-5-5-5-7-5-3-3-0-0-0-3-3-3-7-7-5-5-5-7-5-3-----| 
C|-------------------------------------------------------------5-5-|

F|-----------------------------------|
C|-----------------------------------|
G|-0-0-0-3-3-3-7-7-5-5-5-5-7-5-3-3-0-| 
C|-----------------------------------|

F|------------------------------|
C|------------------------------|
G|-0-0----3--/7--5-5---5-7-5----| 
C|------------------------------|

Chorus/Main Riff x 2

False Outro
F|-----------------------------------------------------------------------------------------|
C|-----------------------------------------------------------------------------------------|
G|-0-0-0x------------------0-0-0x---------------0-0-0x-----------------0-0-0x----0-0-0x----|
C|-----------------------------------------------------------------------------------------|

Chorus/Main Riff x 4

Real Outro
F|----------------------|
C|----------------------|
G|-0-0-0x---------------|
C|----------------------|



TRACK 2 - THREAT LEVEL MIDNIGHT



Intro
F|-----------------------------------------------------------------|
C|-----------------------------------------------------------------|
G|-5-5-5-0-0-0-5-5-5-0-0-0-5-0-5-0-2-2-2-------2-2-2-------2---2---|
C|---------------------------------------5-5-5-------5-5-5---5---5-|

F|------------------------------------------------------------|
C|------------------------------------------------------------|
G|-5-----0-0---5-----0-0---5-0-5-0-2--2-2-2-2-------0----5----|
C|--------------------------------------------5---------------|

Pre-Verse
F|--------------------------------------------|
C|--------------------------------------------|
G|-5-5-5x-------------------------------------|
C|-----------------------0-0-0x---------------|

Verse I (come in "at just need a break from the walls")
F|------------------------------------------------------------------|
C|------------------------------------------------------------------|
G|-5----5--5-5x--------------------------------10----7----5---------|
C|------------------------------------------------------------------|

F|-----------------------------------------------------------------|
C|-----------------------------------------------------------------|
G|-5-5-5-5-5-5-5-5-5-5-5-5-5-5-5-5-5-5-5-5-5-5-5-5-5-5-5-5-5-5-5-5-|
C|-----------------------------------------------------------------|

F|-----------------------------------------------------------------|
C|-----------------------------------------------------------------|
G|-----------------------------------------------------------------|
C|-5-5-5-5-5-5-5-5-5-5-5-5-5-5-5-5-5-5-5-5-5-5-5-5-5-5-5-5-5-5-5-5-|

F|-----------------------------------------------------------------|
C|-----------------------------------------------------------------|
G|-5-5-5-5-5-5-5-5-5-5-5-5-5-5-5-5-5-5-5-5-5-5-5-5-5-5-5-5-5-5-5-5-|
C|-----------------------------------------------------------------|

F|-----------------------------------------|
C|-----------------------------------------|
G|-----------------------------------------|
C|-5-5-5x----------------7~----------------|

Chorus x 2
F|---------------------------------------------------------|
C|---------------------------------------------------------|
G|-----------------------------5--5--5-5-5-5---------------|
C|-0--0--0-0-0-0-5--5--5-5-5-5---------------7--7--7-7-7-7-|

F|-----------------------------------------------------------|
C|-----------------------------------------------------------|
G|-----------------------------------------------------------|
C|-0--0--0-0-0-0-5--5--5-5-5-5-7-7-7-7-7-7-7-7-7-7-7-7-7-7-7-|

Verse II
F|----------------------------------------------------------|
C|----------------------------------------------------------|
G|----------------------------------------------------------| x 4
C|-0-0-0x----0-0-0x----0-0x----5-5-5x-----5-5-5x----7-5~----|

F|---------------------------------------------------------------|
C|---------------------------------------------------------------|
G|-2-2-2-2-2-2-2-2-2-2-2-2-2-2-2-2-0-0-0-0-0-0-0-0-0-0-0-0-0-0-0-|
C|---------------------------------------------------------------|

F|-----------------------------------------------------------------|
C|-----------------------------------------------------------------|
G|-----------------------------------------------------------------|
C|-5-5-5-5-5-5-5-5-5-5-5-5-5-5-5-5-5-5-5-5-5-5-5-5-5-5-5-5-5-5-5-5-|

F|-----------------------------------------------------------------|
C|-----------------------------------------------------------------|
G|-2-2-2-2-2-2-2-2-2-2-2-2-2-2-2-2-0x--0x--0x--0x--0x--0x--0x--0x--|
C|-----------------------------------------------------------------|

F|--------------------------------------------------------------------------------|
C|--------------------------------------------------------------------------------|
G|--------------------------------------------------------------------------------|
C|-5-5x----5-5-5x----5-5-5x----5-5-5x----5-5-5x----5-5-5x----5-7x-----------------|

Chorus x 4

Intro x 1



TRACK 3 - CAN'T KICK UP THE ROOTS



Main Riff / Chorus
F|---------------------------------------------------------------------------|
C|---------------------------------------------------------------------------|
G|---------------3--1-1--------1--3----------------3--1-1--------1--0--1--3--|
C|-3-3--------3----------------------3-3--------3----------------------------|

F|---------------------------------------------------------------------------|
C|---------------------------------------------------------------------------|
G|---------------3--1-1--------1--3----------------3--5--3--1~---------------|
C|-3-3--------3----------------------3-3--------3----------------------------|

Verse I
F|------------------------------------------------------|
C|------------------------------------------------------|
G|-----------3--1~--------3-----------3--1~--------3-1--| 
C|-3~------------------------3~-------------------------|

F|-----------------------------------------------------------|
C|-----------------------------------------------------------|
G|-----------3--1~--------3------------3-5--3--1----0--1--3--|
C|-3~------------------------3~------------------------------|

Pre-Chorus
F|-----------------------------------------------------------------|
C|-----------------------------------------------------------------|
G|-5-5-5-5-5-5-5-5-3-3-3-3-3-3-3-3-1-1-1-1-1-1-1-1-----------------|
C|-------------------------------------------------3-3-3-3-3-3-3-3-|

F|-----------------------------------------------------|
C|-----------------------------------------------------|
G|-5-5-5-5-5-5-5-5-3-3-3-3-3-3-3-3-5--3--1----0--1--3--|
C|-----------------------------------------------------|

Main Riff / Chorus

Verse II
F|-----------------------------------------------------------------|
C|-----------------------------------------------------------------|
G|-----------------3-----3-----3---1-1-1-1-1-1-1-1-3-1-1-3-1-1-3-1-|
C|-3-3-3-3-3-3-3-3---3-3---3-3---3---------------------------------|

F|-----------------------------------------------------------------|
C|-----------------------------------------------------------------|
G|-5-5-5-5-5-5-5-3-3-3-3-3-3-3-3-5-1-1-1-1-1-1-1-1-1-1-1-1-1-1-0-0-|
C|-----------------------------------------------------------------|

F|-----------------------------------------------------------------|
C|-----------------------------------------------------------------|
G|---------------------------------1-1-1-1-1-1-1-1-1-1-1-1-1-1-1-1-|
C|-3-3-3-3-3-3-3-3-3-3-3-3-3-3-3-3---------------------------------|

F|-----------------------------------------------------|
C|-----------------------------------------------------|
G|-5-5-5-5-5-5-5-3-3-3-3-3-3-3-3-3-5--3--1----0--1--3--|
C|-----------------------------------------------------|

Pre-Chorus II
F|-----------------------------------------------------------------|
C|-----------------------------------------------------------------|
G|-5-5-5-5-5-5-5-5-3-3-3-3-3-3-3-3-1-1-1-1-1-1-1-1-----------------|
C|-------------------------------------------------3-3-3-3-3-3-3-3-|

F|-----------------------------------------------------------------|
C|-----------------------------------------------------------------|
G|-5-5-5-5-5-5-5-5-3-3-3-3-3-3-3-3-1-1-1-1-1-1-1-1---1-1-1-1-1-1-1-|
C|-----------------------------------------------------------------|

F|-----------------------------------------------------------------|
C|-----------------3-3-3-3-3-3-3-3---------------------------------|
G|-5-5-5-5-5-5-5-5-----------------3-3-3-3-3-3-3-3-1-1-1-1-1-1-1-1-|
C|-----------------------------------------------------------------|

F|---------------------------------------------------------------------------|
C|---------------------------------------------------------------------------|
G|---------------------------------1-1-1-1-1-1-1-1-3x------------------------|
C|-5-5-5-5-5-5-5-5-5-5-5-5-5-5-5-5-------------------------------------------|

Main Riff / Chorus

Bridge (come in with the rest of the band)
F|---------------|
C|---------------|
G|---------------|
C|-3-5----5-3----|

(listen closely for better timing)
F|-------------------------------------------------|
C|-------------------------------------------------|
G|-5-5-5-5--5-5-5-1--1-1-1-------------------------|
C|--------------------------3-3-3--3-3--3-5-5--3-0-|

F|-------------------------------------------------|
C|-------------------------------------------------|
G|-5-5-5-5--5-5-5-1--1-1-1-------------------------|
C|--------------------------3-3-3--3-3--3-5----5-3-|

F|-------------------------------------------------|
C|-------------------------------------------------|
G|-5-5-5-5--5-5-5-1--1-1-1-------------------------|
C|--------------------------3-3-3--3-3--3-5-5--3-0-|

F|--------------------------------------------|
C|--------------------------------------------|
G|-1--1-1-1--1-1-1--1-1--1-1--3-3--3-3-3--3-3-|
C|--------------------------------------------|

Final Chorus
F|-----------------------------------------|
C|-----------------------------------------|
G|---------------3--1-1--------1--0--1--3--|
C|-3-3--------3----------------------------|

F|-------------------------------------------------------------------------|
C|-------------------------------------------------------------------------|
G|---------------3--1-1--------1--3----------------3--5--3--1~----0--1--3--|
C|-3-3--------3----------------------3-3--------3--------------------------|

F|-------------------------------------------------------------------------------------------------|
C|-------------------------------------------------------------------------------------------------|
G|-------------3-3-3-3-3-3-5-5-5-5-5-5-1-1-1-1-1-1-------------3-3-3-3-3-3-5-5-5-5-5-5-1-1-1-1-1-1-|
C|-3-3-3-3-3-3-------------------------------------3-3-3-3-3-3-------------------------------------|

F|-------------------------------------------------------------------------------------------------|
C|-------------------------------------------------------------------------------------------------|
G|-----------------3-3-3-3-3-3-3-3-5-5-5-5-5-5-5-5-1-1-1-1-1-1-1-1-----------------3-3-3-3-3-3-3-3-|
C|-3-3-3-3-3-3-3-3-------------------------------------------------3-3-3-3-3-3-3-3-----------------|

F|-------------------------------|
C|-------------------------------|
G|-3--5--3--1~----0--1--3--------|
C|-------------------------3--3--|



TRACK 4 - KALI MA



Chorus x 2
F|-------------------------------------------------------|
C|-------------------------------------------------------|
G|-------------------------------------------------------|
C|-1-1-1----1-1-1--1--1-1-1-1-6-6-6----6-6-6--6--6-6-6-6-|

F|--------------------------------------------------------|
C|--------------------------------------------------------|
G|--------------------------------------------------------|
C|-3-3-3----3-3-3--3--3-3-3-3-6--6--6--6--6/10----10\8----|

Verse I
F|-----------------------------------------------------------------------|
C|-----------------------------------------------------------------------|
G|-6~----------------3~----------------1~--------------------------------| x 2
C|------------------------------------------------------6~---------------|

F|-----------------------------------------------------------------|
C|-----------------------------------------------------------------|
G|---------------------------------6-6-6-6-6-6-6-6-6-6-6-6-6-6-6-6-| x 3
C|-4-4-4-4-4-4-4-4-6-6-6-6-6-6-6-6---------------------------------|

F|-----------------------------------------------------------------|
C|-----------------------------------------------------------------|
G|-------------------------6--6--6--6--6x--------------------------|
C|-4--4--4--4--6--6--6--6------------------------------------------|

Chorus x 2

Post-Chorus
F|-----------------------------------------------|
C|-----------------------------------------------|
G|-----------------------------------------------|
C|-1~----------------6-6----1~-------------------|

Verse II
F|-----------------------------------------------------------------|
C|-----------------------------------------------------------------|
G|-----------------------------------------------------------------|
C|-1-1-1-1-1-1-1-1-1-1-1-1-1-1-1-1-6-6-6-6-6-6-6-6-6-6-6-6-6-6-6-6-|
                                                                                   x 2
F|-------------------------------------------------------------------------|
C|-------------------------------------------------------------------------|
G|-------------------------------------------------------------------------|
C|-10-10-10-10-10-10-10-10-8-8-8-8-8-8-8-8-6-6-6-6-6-6-6-6-6-6-6-6-6-6-6-6-|

F|---------------------------------------------------------|
C|---------------------------------------------------------|
G|-3--3--3-3-3-3-----------------------------6--6--6-6-6-6-|
C|---------------6--6--6-6-6-6-1--1--1-1-1-1---------------|

F|---------------------------------------------------------|
C|---------------------------------------------------------|
G|-3--3--3-3-3-3-------------------------------------------|
C|---------------6--6--6-6-6-6-1--1--1--1--1x--------------|

Chorus x 3

Breakdown
F|---------------------------------------------------------------|
C|---------------------------------------------------------------|
G|-----------------------------------------------------------1---|
C|-1~------------------------1--1--1x----------------------1---1-|

F|--------------------------------------------------------------------------|
C|--------------------------------------------------------------------------|
G|-3~------------------6~----------------3~-----------------6-6-6--6-6--6-6-|
C|-----------6~-----------------------------------6~------------------------|

F|-----------------------------|
C|-----------------------------|
G|-----------------------------|
C|-1-1-1----1--1--1-1--1-1-1-1-|



TRACK 5 - GOLD STEPS



Main Riff x 2
F|-----------------------------------------------------------------------------------------------------|
C|-----------------------------------------------------------------------------------------------------|
G|-----------------------------------------------------------------------------------------------------| 
C|-9----\5-----0-5-4-5----0-5-4-5----0-5-4-5--5-7-7-7-9----\5----0-5-4-5----0-5-4-5----0-5-4-5--5-0----|

Verse I x 2
F|-----------------------------------------------------------------|
C|-----------------------------------------------------------------|
G|-----------------------------------------------------------------|
C|-0-0-0-0-0-0-0-0-0-0-0-0-0-0-0-0-4-4-4-4-4-4-4-4-5-5-5-5-5-5-5-5-|

F|-----------------------------------------------------------------|
C|-----------------------------------------------------------------|
G|-2-2-2-2-2-2-2-2-4-4-4-4-4-4-4-4---------------------------------|
C|---------------------------------5-5-5-5-5-5-5-5-5-5-5-5-5-5-5-5-|

Pre-Chorus I
F|----------------------------------------------------------|
C|----------------------------------------------------------|
G|----------------------------------------------------------|
C|-2--2--2-2-2-2--2-2--2-2-2-2--5--5--5-5-5-5--5-5--5-5-5-5-|

F|-----------------------------------------------------------|
C|-----------------------------------------------------------|
G|-5--5--5-5-5-5--5-5--5-5-5-5-------------------------------|
C|------------------------------7--7-7-7-7-7-7-7-7-7-7-7--7--|

Chorus 
F|-----------------------------------------------------------------|
C|-----------------------------------------------------------------|
G|-----------------------------------------------------------------|
C|-0-0-0-0-0-0-0-0-0-0-0-0-0-0-0-0-7-7-7-7-7-7-7-7-7-7-7-7-7-7-7-7-|

F|-----------------------------------------------------------------|
C|-----------------------------------------------------------------|
G|-----------------------------------------------------------------|
C|-2-2-2-2-2-2-2-2-2-2-2-2-2-2-2-2-5-5-5-5-5-5-5-5-5-5-5-5-5-5-5-5-|

Post-Chorus (main riff variation)
F|-----------------------------------------------------------------------------------------------------|
C|-----------------------------------------------------------------------------------------------------|
G|-----------------------------------------------------------------------------------------------------| 
C|------\5-----0-5-4-5----0-5-4-5----0-5-4-5--5-7-7-7-9----\5----0-5-4-5----0-5-4-5----0-5-4-5--5-0----|

F|-----------------------|
C|-----------------------|
G|-----------------------|
C|-0~--------12\~--------|

Verse II
F|-----------------------------------------------------------------|
C|-----------------------------------------------------------------|
G|-----------------------------------------------------------------|
C|-0-0-0-0-0-0-0-0-0-0-0-0-0-0-0-0-4-4-4-4-4-4-4-4-5-5-5-5-5-5-5-5-|

F|-----------------------------------------------------------------|
C|-----------------------------------------------------------------|
G|---------------------------------2-2-2-2-2-2-2-2-----------------|
C|-0-0-0-0-0-0-0-0-0-0-0-0-0-0-0-0-----------------5-5-5-5-5-5-5-5-|

F|-----------------------------------------------------------------|
C|-----------------------------------------------------------------|
G|-----------------------------------------------------------------|
C|-0-0-0-0-0-0-0-0-0-0-0-0-0-0-0-0-4-4-4-4-4-4-4-4-5-5-5-5-5-5-5-5-|

F|-----------------------------------------------------------------|
C|-----------------------------------------------------------------|
G|-2-2-2-2-2-2-2-2-4-4-4-4-4-4-4-4---------------------------------|
C|---------------------------------5-5-5-5-5-5-5-5-5-5-5-5-5-5-5-5-|

Pre-Chorus II
F|----------------------------------------------------------|
C|----------------------------------------------------------|
G|----------------------------------------------------------|
C|-2--2--2-2-2-2--2-2--2-2-2-2--5--5--5-5-5-5--5-5--5-5-5-5-|

F|-----------------------------------------------------------|
C|-----------------------------------------------------------|
G|-5--5--5-5-5-5--5-5--5-5-5-5-------------------------------|
C|------------------------------7--7-7-7-7-7-7-7-7-7-7-7-----|

Chorus (same as before)

Breakdown
F|-------------------------------------------------------------------------------------------------|
C|-------------------------------------------------------------------------------------------------|
G|-------------------------------------------------------------------------------------------------|
C|-0-0-0-0-0-0--0-0----0-0-0-0-0-0--0-0--0--0--0-0-5-5-5-5-5-5--5-5----5-5-5-5-5-5--5-5--5--5--5-5-|

F|-------------------------------------------------------------------------------------------------|
C|-------------------------------------------------------------------------------------------------|
G|-------------------------------------------------------------------------------------------------|
C|-9-9-9-9-9-9--9-9----7-7-7-7-7-7--7-7--7--7--7-7-5-5-5-5-5-5--5-5----5-5-5-5-5-5--5-7--7--7--7-7-|

Final Chorus (come in with the rest of the band)
F|-----------------------------------------------------------------|
C|-----------------------------------------------------------------|
G|-----------------------------------------------------------------|
C|-0-0-0-0-0-0-0-0-0-0-0-0-0-0-0-0-7-7-7-7-7-7-7-7-7-7-7-7-7-7-7-7-|

F|-----------------------------------------------------------------|
C|-----------------------------------------------------------------|
G|-----------------------------------------------------------------|
C|-2-2-2-2-2-2-2-2-2-2-2-2-2-2-2-2-5-5-5-5-5-5-5-5-5-5-5-5-5-5-5-5-|

Main Riff x 1



TRACK 6 - LIME ST.



Main Riff 
F|------------------------------------------------------------|
C|------------------------------------------------------------|
G|------------------------------------------------------------|
C|-0--0--0--0/12--12-12--12--12--0--0--0--0/12--12-12--12--12-|

F|---------------------------------------------------|
C|---------------------------------------------------|
G|---------------------------------------------------|
C|-7--7--7--7-7--7-7--7--7--5--5--5--5-5--5-5--5--5--|

F|------------------------------------------------------------|
C|------------------------------------------------------------|
G|------------------------------------------------------------|
C|-0--0--0--0/12--12-12--12--12--0--0--0--0/12--12-12--12--12-|

F|---------------------------------------------------|
C|---------------------------------------------------|
G|---------------------------------------------------|
C|-7--7--7--7-7--7-7--7--7--5--5--5-5-5-5x-----------|

Verse x 2
F|---------------------------------------------------------|
C|---------------------------------------------------------|
G|---------------------------------------------------------|
C|-0--0--0-0-0-0--0-0--0-0-0-0-0--0--0-0-0-0--0-0--0-0-0-0-|

F|-----------------------------------------------|
C|-----------------------------------------------|
G|-----------------------------------------------|
C|-4--4--4-4-4-4--4-4--4-4-4-4-5--5-4--4-5--5-7--|

Pre-Chorus
F|---------------------------------------------------------------|
C|---------------------------------------------------------------|
G|---------------------------------------------------------------|
C|-4--4-4-4-4-4-4-4-4-4-4-4-4-4-4-5--5-5-5-5-5-5-5-5-5-5-5-5-5-5-|

F|----------------------------------------------------------------|
C|----------------------------------------------------------------|
G|----------------------------------------------------------------|
C|-9--9-9-9-9-9-9-7--7-7-7-7-7-7-5--5-5-5-5-5-5-5-5-5-5-5-5-5-5-5-|

F|---------------------------------------------------------------|
C|---------------------------------------------------------------|
G|---------------------------------------------------------------|
C|-4--4-4-4-4-4-4-4-4-4-4-4-4-4-4-5--5-5-5-5-5-5-5-5-5-5-5-5-5-5-|

F|----------------------------------------------------------------|
C|----------------------------------------------------------------|
G|----------------------------------------------------------------|
C|-9--9-9-9-9-9-9-7--7-7-7-7-7-7-5~---------------------------17\-|

Chorus
F|-------------------------------------------------------------------------------------------------------|
C|-------------------------------------------------------------------------------------------------------|
G|-------------------------------------------------------------------------------------------------------|
C|-0--0--0---0-4--4--4---4-5--5--5---5-5--5--5--5---5-0--0--0---0-4--4--4---7-5--5--5---5-5--5--5--5---5-|

F|---------------------------------------------------------------------------|
C|---------------------------------------------------------------------------|
G|---------------------------------------------------------------------------|
C|-9--9--9--9----4----5----5--5--5--5--5--5--2--2--2--2--2--4----5~----------|

Main Riff Variation x 2
F|------------------------------------------------------------|
C|------------------------------------------------------------|
G|------------------------------------------------------------|
C|-0--0--0--0/12--12-12--12--12--0--0--0--0/12--12-12--12--12-|

F|---------------------------------------------------|
C|---------------------------------------------------|
G|---------------------------------------------------|
C|-7--7--7--7-7--7-7--7--7--5--5--5--5-5--5-5--5--5--|

Verse (same as before) x 2

Pre-Chorus Variation
F|---------------------------------------------------------------|
C|---------------------------------------------------------------|
G|---------------------------------------------------------------|
C|-4--4-4-4-4-4-4-4-4-4-4-4-4-4-4-5--5-5-5-5-5-5-5-5-5-5-5-5-5-5-|

F|---------------------------------------------------------------|
C|---------------------------------------------------------------|
G|---------------------------------------------------------------|
C|-9--9-9-9-9-9-9-9-9-9-9-9-9-9-9-5--5-5-5-5-5-5-5-5-5-5-5-5-5-5-|

F|---------------------------------------------------------------|
C|---------------------------------------------------------------|
G|---------------------------------------------------------------|
C|-4--4-4-4-4-4-4-4-4-4-4-4-4-4-4-5--5-5-5-5-5-5-5-5-5-5-5-5-5-5-|

F|----------------------------------------------------------------|
C|----------------------------------------------------------------|
G|----------------------------------------------------------------|
C|-9--x--9--x--7--x--7--x--5~---------------------------------17\-|

Chorus Variation
F|-------------------------------------------------------------------------------------------------------|
C|-------------------------------------------------------------------------------------------------------|
G|-------------------------------------------------------------------------------------------------------|
C|-0--0--0---0-4--4--4---4-5--5--5---5-5--5--5--5---5-0--0--0---0-4--4--4---7-5--5--5---5-5--5--5--5---5-|

F|---------------------------------------------------------------------------|
C|---------------------------------------------------------------------------|
G|---------------------------------------------------------------------------|
C|-9--9--9--9----4----5----5--5--5--5--5--5--2--2--2--2--2--4----5~----------|

F|-------------------------------------------------------------------------------------------------------|
C|-------------------------------------------------------------------------------------------------------|
G|-------------------------------------------------------------------------------------------------------|
C|-0--0--0---0-4--4--4---4-5--5--5---5-5--5--5--5---5-0--0--0---0-4--4--4---7-5--5--5---5-5--5--5--5---5-|

F|------------------------------------------------------------------------------------|
C|------------------------------------------------------------------------------------|
G|------------------------------------------------------------------------------------|
C|-9--9--9--9----4----5----5--5--5--5--5--5--2--2--2--2--2--4----5--5--5--5--5--5--5--|

Bridge
F|-------------------------------------------------------------------------------------|
C|-------------------------------------------------------------------------------------|
G|-------------------------------------------------------------------------------------|
C|-0~----------------4~----5~----------------0~----------------7~----5~----------------|

F|-------------------------------------------------------------------------------------|
C|-------------------------------------------------------------------------------------|
G|-------------------------------------------------------------------------------------|
C|-0~----------------4~----5~----------------2~----------------7~----5~----------------|

Final Chorus/Outro
F|-------------------------------------------------|
C|-------------------------------------------------|
G|-------------------------------------------------| x 3
C|-0--0--0--0--0--4--4--4--5--5--5--5--5--7--7--7--|

F|-------------------------------------------------|
C|-------------------------------------------------|
G|-------------------------------------------------|
C|-2--2--2--2--2--5----7~--------------------------|

F|---------------------------------------------------------------------------|
C|---------------------------------------------------------------------------|
G|---------------------------------------------------------------------------|
C|-0~------------------------------------------------------------------------|




TRACK 7 - SERPENTS



Intro
F|--------------------------------------------------|
C|--------------------------------------------------|
G|------------4-4--4--4--2-2--2--2--2-2-1-1---------| x 4
C|-1-1--1--1--------------------------------6-6-4-4-|

F|-------------------|
C|-------------------|
G|-------------------|
C|-1x--------------1-|

Verse I x 2
F|-----------------------------------------------------------------|
C|-----------------------------------------------------------------|
G|-----------------------------------------------------------------|
C|-1-1-1-1-1-1-1-1-1-1-1-1-1-1-1-1-1-1-1-1-1-1-1-1-1-1-1-1-1-1-1-1-|

F|-----------------------------------------------------------------|
C|-----------------------------------------------------------------|
G|-----------------------------------------------------------------|
C|-4-4-4-4-4-4-4-4-4-4-4-4-4-4-4-4-3-3-3-3-3-3-3-3-3-3-3-3/6-6-6-6-|

Chorus x 2
F|-----------------------------------------------------------------|
C|-----------------------------------------------------------------|
G|-6-6-6-6-6-6-6-6-6-6-6-6-6-6-6-6-2-2-2-2-2-2-2-2-2-2-2-2-2-2-2-2-|
C|-----------------------------------------------------------------|

F|-----------------------------------------------------------------|
C|-4-4-4-4-4-4-4-4-4-4-4-4-4-4-4-4---------------------------------|
G|---------------------------------4-4-4-4-4-4-4-4-8-8-8-8-9-9-9-9-|
C|-----------------------------------------------------------------|

Bass Riff x 6
F|-------------------------------------------------------|
C|-------------------------------------------------------|
G|--------------------------1-2----2-4-2-2----2--2-1-----|
C|-1----1-4-1-1----1--1-4-6--------------------------6-4-|

Chorus x 2

Bridge x 2
F|---------------------------------------------------------------------------------|
C|---------------------------------------------------------------------------------|
G|-6-6x----6-6-6x----6-6-6x----6-6-6x----6-2-2x----2-2-2x----2-2-2x----2-2-2x----2-|
C|---------------------------------------------------------------------------------|

F|---------------------------------------------------------------------------------|
C|---------------------------------------------------------------------------------|
G|-9-9x----9-9-9x----9-9-9x----9-9-9x----9-4-4x----4-4-4x----4-4-4x----4-4-4x----4-|
C|---------------------------------------------------------------------------------|

Outro
F|--------------------------------------------------|
C|--------------------------------------------------|
G|------------4-4--4--4--2-2--2--2--2-2-1-1---------| 
C|-1-1--1--1--------------------------------6-6-4-4-|

F|------------------------------------|
C|------------------------------------|
G|------------------------------------|
C|-1x--------------1~-----------------|




TRACK 8 - THE BEACH IS FOR LOVERS (NOT LONELY LOSERS)



Chorus
F|---------------------------------------------------------------------|
C|---------------------------------------------------------------------|
G|-2-2-2-2-2-2-2-------------------------------------------------------| x 2
C|------------------6-6-6-6-6-6-6----4-4-4-4-4-4-4----2-2-2-2-2-2-2----|

F|------------------------------------------------------------------|
C|------------------------------------------------------------------|
G|-2-2-----2-2-2----------------------------------------------------|
C|------------------6-6----6-6-6----4-4----4-4-4----2-2----2-2-2----|

F|---------------------------------------------------------------------|
C|---------------------------------------------------------------------|
G|-2-2-2-2-2-2-2-------------------------------------------------------| 
C|------------------6-6-6-6-6-6-6----4-4-4-4-4-4-4----2-2-2--2-2-2-----|

Verse I
F|-------------------------------------|
C|-------------------------------------|
G|-2----2-4----------------------------| x 4
C|----------6----6-9-4----4-6-2----2-4-|

F|----------------------------------------------------------------|
C|----------------------------------------------------------------|
G|2-2-2-2-2-2-2-2-------------------------------------------------|
C|----------------6-6-6-6-6-6-6-6-4-4-4-4-4-4-4-4-2-2-2-2-2-2-2-2-|

F|------------------------------------------------------------|
C|------------------------------------------------------------|
G|2x--2x--2x--2x----------------------------------------------|
C|----------------6x--6x--6x--6x--4x--4x--4x--4x--2x----2x----|

Chorus

Verse II
F|-------------------------------------|
C|-------------------------------------|
G|-2----2-4----------------------------| x 2
C|----------6----6-9-4----4-6-2----2-4-|

F|----------------------------------------------------------------|
C|----------------------------------------------------------------|
G|2-2-2-2-2-2-2-2-------------------------------------------------|
C|----------------6-6-6-6-6-6-6-6-4-4-4-4-4-4-4-4-2-2-2-2-2-2-2-2-|

F|------------------------------------------------------------|
C|------------------------------------------------------------|
G|2x--2x--2x--2x----------------------------------------------|
C|----------------6x--6x--6x--6x--4x--4x--4x--4x--2x----------|

Chorus

Bridge
F|-----------------------------------------------------------------------------------|
C|-----------------------------------------------------------------------------------|
G|-2~--------------------------------------------------------------------------------|
C|-------------------(4)~----------------(6)~----------------(2)~--------(4)~--------|

F|------------------------------------------------------------------------------------|
C|------------------------------------------------------------------------------------|
G|-2--2--2x---------------------------------------------------------------------------|
C|--------------------4~------------------6~------------------2--2--2--2--4--4--4--4--|

Final Chorus
F|---------------------------------------------------------------------|
C|---------------------------------------------------------------------|
G|-2-2-2-2-2-2-2-------------------------------------------------------| x 2
C|------------------6-6-6-6-6-6-6----4-4-4-4-4-4-4----2-2-2-2-2-2-2----|

F|-----------------------------------------------------------------|
C|-----------------------------------------------------------------|
G|-2x--2x--2x--2x--------------------------------------------------| 
C|-----------------6x--6x--6x--6x--4x--4x--4x--4x--2x--2x--2x--2x--|

F|-----------------------------------------------------------------|
C|-----------------------------------------------------------------|
G|-2x--2x--2x--2x--------------------------------------------------| 
C|-----------------6x--6x--6x--6x--4x--4x--4x--4x--2x--2x--2~------|



TRACK 9 DECEMBER


[NO BASS PART; if you still want to play along just play the roots of all the chords; several chords have
already been posted to this site.]



TRACK 10 - SMOOTH SEAS DON'T MAKE GOOD SAILORS



Main Riff
F|-----------------------------------------------------------------|
C|-----------------------------------------------------------------|
G|-5-5-5-5-5-5-5-5-5-5-5-5-5-5-5-5---------------------------------|
C|---------------------------------4-4-4-4-4-4-4-4-5-5-5-5-5-5-5-5-|

F|-----------------------------------------------------------------|
C|-------------------------------------------------2-2-2-2-4-4-4-4-|
G|-5-5-5-5-5-5-5-5-5-5-5-5-5-5-5-5-2-2-2-2-2-2-2-2-----------------|
C|-----------------------------------------------------------------|

F|------------------------------------------------------------------------------------------------------------|
C|--------------------------------------------------------------------------------------------2-2-2-2-4-4-4-4-|
G|-5-5-5-5--5--5-5--5-5-5-5--------------------------5-5-5-5--5--5-5--5-5-5-5-2-2-2-2-2-2-2-2-----------------|
C|--------------------------4-4-4-4--4--4-4--4-4-4-4----------------------------------------------------------|

Verse I
F|-----------------------------------------------------------------|
C|-----------------------------------------------------------------|
G|-----------------------------------------------------------------|
C|-0-0-0-0-0-0-0-0-0-0-0-0-0-0-0-0-0-0-0-0-0-0-0-0-0-0-0-0-0-0-0-0-|

F|-----------------------------------------------------------------|
C|-----------------------------------------------------------------|
G|-----------------------------------------------------------------|
C|-2-2-2-2-2-2-2-2-2-2-2-2-2-2-2-2-7-7-7-7-7-7-7-7-7-7-7-7-7-7-7-7-|

F|-----------------------------------------------------------------------------------------------------|
C|-----------------------------------------------------------------------------------------------------|
G|-----------------------------------------------------------------------------------------------------|
C|-0-0-0--0-0--0-0-0-0--0-0-0-0-0--0-0--0-0-0-0--0-0-2-2-2--2-2--2-2-2-2--2-2-7-7-7--7-7--7-7-7-7--\\\-|

Pre-Chorus (or you could just play 0's on the fourth string)
F|---------------------------------------------------------------|
C|---------------------------------------------------------------|
G|-------5-5-5-------5-5-5-----5--------5-5-5-------5-5-5-2-0----| 
C|-0-0-0-------0-0-0-------0-0----0-0-0-------0-0-0-----------5--|

F|---------------------------------------------------------------|
C|---------------------------------------------------------------|
G|-------5-5-5-------5-5-5-----5---------------------------------|
C|-0-0-0-------0-0-0-------0-0----2-2-2-2-2-2-2-2-5-5-5-5-5x-----|

Chorus
F|-----------------------------------------------------------------|
C|-----------------------------------------------------------------|
G|-5-5-5-5-5-5-5-5-5-5-5-5-5-5-5-5---------------------------------|
C|---------------------------------4-4-4-4-4-4-4-4-5-5-5-5-5-5-5-5-|

F|-----------------------------------------------------------------|
C|-----------------------------------------------------------------|
G|-2-2-2-2-2-2-2-2-------------------------------------------------|
C|-----------------7-7-7-7-7-7-7-7-5-5-5-5-5-5-5-5-5-5-5-5-5-5-5-5-|

"Smooth seas don't make good sailors"
F|---------------------------------------------------|
C|---------------------------------------------------|
G|---------------------------------------------------|
C|-0-0-0-0--0--0-0--0-0-0-0-5-5-5-5--5--5-5--5-5-4-4-|

F|----------------------------------------------------------------|
C|----------------------------------------------------------------|
G|--------------------------2-2-2-2-2-2-2-2------------------5----|
C|-0-0-0-0--0--0-0--0-0-0-0-----------------2-2-2-2-4-4-4-4-(0)---|

Interlude
F|---------------|
C|---------------|
G|---------------|
C|-5-5-5-5-4--2--|

F|-------------------------------------------------------------------|
C|-------------------------------------------------------------------|
G|-5-5-5-----------------------------5-5-5---------------------------| x 3
C|----------4----4-5-5-5----7-7-7-------------4----4-5-5-5-5-5-5-4-4-|

Pre-Chorus Variation
F|---------------------------------------------------------------|
C|---------------------------------------------------------------|
G|-------5-5-5-------5-5-5-----5--------5-5-5-------5-5-5x-------| 
C|-0-0-0-------0-0-0-------0-0----0-0-0-------0-0-0--------------|

Chorus II
F|-----------------------------------------------------------------|
C|-----------------------------------------------------------------|
G|-5-5-5-5-5-5-5-5-5-5-5-5-5-5-5-5---------------------------------|
C|---------------------------------4-4-4-4-4-4-4-4-5-5-5-5-5-5-5-5-|

F|-----------------------------------------------------------------|
C|-----------------------------------------------------------------|
G|-2-2-2-2-2-2-2-2-------------------------------------------------|
C|-----------------7-7-7-7-7-7-7-7-5-5-5-5-5-5-5-5-5-5-5-5-5-5-5-5-|

"Smooth seas don't make good sailors"
F|---------------------------------------------------|
C|---------------------------------------------------|
G|---------------------------------------------------|
C|-0-0-0-0--0--0-0--0-0-0-0-5-5-5-5--5--5-5--5-5-4-4-|

F|----------------------------------------------------------|
C|----------------------------------------------------------|
G|--------------------------2-2-2-2-2-2-2-2-----------------|
C|-0-0-0-0--0--0-0--0-0-0-0-----------------2-2-2-2-4-4-4-4-|

Bridge
F|-----------------------------------------------------------------|
C|-----------------------------------------------------------------|
G|-----------------------------------------------------------------|
C|-2-2-2-2-2-2-2-2-2-2-2-2-2-2-2-2-5-5-5-5-5-5-5-5-5-5-5-5-5-5-5-5-|

F|---------------------------------------------------------|
C|---------------------------------------------------------|
G|-5-5----5-5----5-5----5-5--------------------------------|
C|-----------------------------7-7----7-7----7-7----7-7----|

F|-----------------------------------------------------|
C|-----------------------------------------------------|
G|-----------------------------------------------------|
C|-2----2----2----2----2--2--5----5----5----5----5--5--|

F|---------------------------------------------------------------------------------------|
C|---------------------------------------------------------------------------------------|
G|-5~------------------------------------------------------------------------------------|
C|-------------------4~--------5~--------0~----------------2-2-2-2-2-2-2-2-5-5-5-5-5x----|

Final Chorus
F|-----------------------------------------------------------------|
C|-----------------------------------------------------------------|
G|-5-5-5-5-5-5-5-5-5-5-5-5-5-5-5-5---------------------------------|
C|---------------------------------4-4-4-4-4-4-4-4-5-5-5-5-5-5-5-5-|

F|-----------------------------------------------------------------|
C|-----------------------------------------------------------------|
G|-2-2-2-2-2-2-2-2-------------------------------------------------|
C|-----------------7-7-7-7-7-7-7-7-5-5-5-5-5-5-5-5-5-5-5-5-5-5-5-5-|

"Smooth seas don't make good sailors"
F|---------------------------------------------------|
C|---------------------------------------------------|
G|---------------------------------------------------|
C|-0-0-0-0--0--0-0--0-0-0-0-5-5-5-5--5--5-5--5-5-4-4-|

F|----------------------------------------------------------|
C|----------------------------------------------------------|
G|--------------------------2-2-2-2-2-2-2-2-----------------|
C|-0-0-0-0--0--0-0--0-0-0-0-----------------2-2-2-2-4-4-4-4-|

F|---------------------------------------------------------------------------|
C|---------------------------------------------------------------------------|
G|-2-2-2-2-2-2-2-2-----------------2-2--2-2-2--2---------------5-5-----------|
C|-----------------2-2-2-2-4-4-4-4---------------2-2--2-4-4--4---------------|



TRACK 11 - I HOPE THIS COMES BACK TO HAUNT YOU



Intro
F|----------------------------------------------------------------8~--------|
C|------------------------------------------------------8~------------------|
G|1~----------------3~----------------6~------------------------------------|
C|--------------------------------------------------------------------------|

F|----------------------------------------------------------------8---------|
C|------------------------------------------------------8~-------------8----|
G|1~----------------3~----------------6~------------------------------------|
C|--------------------------------------------------------------------------|

F|------------------10------8------7--------------------8------7------5-----|
C|-5--7--8~-----------------------------3--5--7~----------------------------|
G|--------------------------------------------------------------------------|
C|--------------------------------------------------------------------------|

F|--------------------------------------------------------------------------|
C|-------8----------8----------8----------8----------8----------8-----------|
G|-6--6-------6--6-------6--6-------6--6-------6--6-------6--6-------6~-----|
C|--------------------------------------------------------------------------|

Verse I
F|-----------------------------------------------------------------|
C|-----------------------------------------------------------------|
G|-1-1-1-1-1-1-1-1-1-1-1-1-1-1-1-1-3-3-3-3-3-3-3-3-3-3-3-3-3-3-3-3-|
C|-----------------------------------------------------------------|

F|-----------------------------------------------------------------|
C|-----------------------------------------------------------------|
G|-6-6-6-6-6-6-6-6-6-6-6-6-6-6-6-6-6-6-6-6-6-6-6-6-6-6-6-6-6-6-6-6-|
C|-----------------------------------------------------------------|

F|-----------------------------------------------------------------|
C|-5-5-5-5-5-5-5-5-5-5-5-5-5-5-5-5---------------------------------|
G|---------------------------------8-8-8-8-8-8-8-8-8-8-8-8-8-8-8-8-|
C|-----------------------------------------------------------------|

F|-----------------------------------------------------------------|
C|-----------------------------------------------------------------|
G|-6-6-6-6-6-6-6-6-6-6-6-6-6-6-6-6-6-6-6-6-6-6-6-6-6-6-6-6-6x------|
C|-----------------------------------------------------------------|

Chorus 
F|-------------------------------------|
C|-5--5----5---------------------------|
G|-----------6-6-6-6-1--1----1-1-1-1-1-| x 3
C|-------------------------------------|

F|-------------------------------------|
C|-5--5----5---------------------------|
G|-----------6-6-6-6-1-1-1-1-1-1-1x----| 
C|-------------------------------------|

Verse II
F|-------------------------------------------------------------------|
C|---------------------------------------15------13------12----------|
G|-1~----------------/15--17--13~----------------------------15--17--|
C|-------------------------------------------------------------------|

F|----------------------------------------|
C|------------15------13------12----------|
G|-13~----------------------------15--17--| x 2
C|----------------------------------------|

F|--------------------------------|
C|------------15------12------13--|
G|-13~----------------------------|
C|--------------------------------|

Chorus (same as before)

Bridge
F|-------------------------------------------------------|
C|-------------------------------------------------------|
G|-1-1-1-1-1-1-1-1-1-1-1-1-1///13-13-13-13-13x----13x----|
C|-------------------------------------------------------|

F|------------------------------------------------|
C|------------------------------------------------|
G|-1~----------------1x----1x---------------------|
C|------------------------------------------------|

F|-----------------------------------------------------------------|
C|------------15--12----13~-------------------15--12----13~--------|
G|-/13~----------------------------13~-----------------------------|
C|-----------------------------------------------------------------|

Outro
F|---------------------------------------------------------------------------------|
C|---------3--3----1--1--1--1--1--1--1--1----------3--3----1--1--1--1--1--0--1--3--|
G|-1--1------------------------------------1--1------------------------------------| x repeat until fades out
C|---------------------------------------------------------------------------------|



TRACK 12 - ROCK BOTTOM



Verse I/Bass Riff x 2 
F|---------------------------------|
C|-----7---4-------5---4-------4---|
G|-5-5---5---5-7-5---5---5-7-5---5-| x 2
C|---------------------------------|

F|-----------------------------------------------|
C|--------12----9----------10----9----------9----|
G|-/10-10----10---10-12-10----10---10-12-10---10-|
C|-----------------------------------------------|

F|----------------------------------------|
C|-------12----9----------9-9-9-9-7-7-7-7-|
G|-10-10----10---10-12-10-----------------|
C|----------------------------------------|

Pre-Chorus
F|------------------------------------------------------|
C|------4----4------5--5---------4----4----/12-14-12----|
G|-5------------------------5---------------------------|
C|------------------------------------------------------|

F|-------------------------------------|
C|------4----4------5--5--5------------|
G|-5-------------------------5~--------|
C|-------------------------------------|

Chorus
F|-----------------------------------------------------------------|
C|-----------------------------------------------------------------|
G|-2-2-2-2-2-2-2-2-2-2-2-2-2-2-2-2---------------------------------|
C|---------------------------------0-0-0-0-0-0-0-0-0-0-0-0-0-0-0-0-|

F|-----------------------------------------------------------------|
C|-----------------------------------------------------------------|
G|-----------------------------------------------------------------|
C|-7-7-7-7-7-7-7-7-7-7-7-7-7-7-7-7-5-5-5-5-5-5-5-5-5-5-5-5-5-5-5-5-|

F|-----------------------------------------------------------------|
C|-----------------------------------------------------------------|
G|-2-2-2-2-2-2-2-2-2-2-2-2-2-2-2-2---------------------------------|
C|---------------------------------0-0-0-0-0-0-0-0-0-0-0-0-0-0-0-0-|

F|-----------------------------------------------------------------|
C|-----------------------------------------------------------------|
G|-----------------------------------------------------------------|
C|-7-7-7-7-7-7-7-7-7-7-7-7-7-7-7-7-5--------5----5-----------------|

Bass Riff/Verse x 2

Pre-Chorus Variation x 2
F|------------------------------------------------------|
C|------4----4------5--5---------4----4----/12-14-12----|
G|-5------------------------5---------------------------| 
C|------------------------------------------------------|

F|--------------------------------------------------|
C|------4----4------5--5----------------------------|
G|-5------------------------5----5----5----5--5--5--| 
C|--------------------------------------------------|

Chorus 

Bridge (play the first line 4x)
F|------------------------------------------------------------------------------------------------------------|
C|--------------------------------------------4--5--4--2------------------------------------------------------|
G|-2-2x--------2-2x------------2-2x--------2--------------5-5x--------5-5x------------5-5x--------------------|
C|------------------------------------------------------------------------------------------------5--5--7--7--|

F|---------------------------------------------------------------------------|
C|---------------------------------------------------------------------------|
G|-2~------------------------------------------------------------------------|
C|---------------------------------------------------------------------------|

Final Chorus
F|-----------------------------------------------------------------|
C|-----------------------------------------------------------------|
G|-2-2-2-2-2-2-2-2-2-2-2-2-2-2-2-2-5-5-5-5-5-5-5-5-5-5-5-5-5-5-5-5-|
C|-----------------------------------------------------------------|

F|-----------------------------------------------------------------|
C|-----------------------------------------------------------------|
G|-----------------------------------------------------------------|
C|-7-7-7-7-7-7-7-7-7-7-7-7-7-7-7-7-5-5-5-5-5-5-5-5-5-5-5-5-5-5-5-5-|

F|-----------------------------------------------------------------|
C|-----------------------------------------------------------------|
G|-2-2-2-2-2-2-2-2-2-2-2-2-2-2-2-2---------------------------------|
C|---------------------------------0-0-0-0-0-0-0-0-0-0-0-0-0-0-0-0-|

F|-----------------------------------------------------------------|
C|-----------------------------------------------------------------|
G|-----------------------------------------------------------------|
C|-7-7-7-7-7-7-7-7-7-7-7-7-7-7-7-7-5-5-5-5-5-5-5-5-5-5-5-5-5-5-5-5-|

F|-----------------------------------------------------------------------------------|
C|-----------------------------------------------------------------------------------|
G|-2--2----2-2-2-2--2--2-2-2-2-5--5----5-5-5-5--5--5-5-5-5---------------------------|
C|---------------------------------------------------------7--7--7-7-7-7--7--7-7-7-7-|

F|--------------------------|
C|-5----4---------5--4------|
G|-----------5--------------|
C|--------------------------|

F|-----------------------------------------------------------------------------------|
C|-----------------------------------------------------------------------------------|
G|-2--2----2-2-2-2--2--2-2-2-2-5--5----5-5-5-5--5--5-5-5-5---------------------------|
C|---------------------------------------------------------7--7--7-7-7-7--7--7-7-7-7-|

F|--------------------------|
C|-5----4-------------------|
G|-----------5~-------------|
C|--------------------------|

That's everything... happy playing!



            
            
Suggest correction
Creating personal tab
Creating personal tab
You can edit any tab online and save it as your Personal.

You can edit, replace or remove any tab part or add personal notes – all changes will be seen only by you.

Personal tabs can be accessed anytime from any device, even offline.
Learn more »
comments
print report bad tab
guest
You may want to rate the tab now too:
select rating
Wanna post a correction for this tab? Suggest correction