Oops, an error
Loading. Please wait.

Motion Sickness tab

version 2
version 2

Whole song

  • Leads for the song.
  • ver 3 new
    Both Guitar Parts in the tuning of the original recording.
676 views 273 this week
no commentswrite comment
1 2 3 4 5
x 4
add to favorites
×
Save as Personal and add changes to this tab that will be seen only by you. Learn more ›
×
You can save this tab as Personal to edit and correct it or add notes. All changes will be seen only by you. Learn more »
launch autoscroll
font size
0
reset
how to read this tab
guitar tuner
edit
Autoscroll
slow
fast
+/-
esc
set tempo
stop
About this tab version
Leads for the song. Was this info helpful? Yes No
-----------------------------------------------------------------
Motion Sickness - Neck Deep
-----------------------------------------------------------------
Tabbed by: Ben Corbett
Cover link: https://www.youtube.com/watch?v=jMec_s8czDM

Tuning: Drop C
BPM: 210

This tab is mostly for the leads of the song.

Intro (0:00)

D|------------------------------------------------------------------------|
A|--------12-----------12-----------12-----------12-----------12-12\------|
F|--9-9-9------9-9-9-9------9-9-9-9------9-9-9-9------9-9-9-9-------------|
C|------------------------------------------------------------------------|
G|------------------------------------------------------------------------|
C|------------------------------------------------------------------------|

D|------------------------------------------------------------------------|
A|--------12-----------12-----------12-----------12-----------12\---------|
F|--9-9-9------9-9-9-9------9-9-9-9------9-9-9-9------9-9-9-9-------------|
C|------------------------------------------------------------------------|
G|------------------------------------------------------------------------|
C|------------------------------------------------------------------------|
    *Apply a light palm mute to all 9's*

Chorus (0:09)

D|------------------------------------------------------------------------|
A|--------12-----------12-----------12-----------12-----------12-12\------| 
F|--9-9-9------9-9-9-9------9-9-9-9------9-9-9-9------9-9-9-9-------------|
C|------------------------------------------------------------------------| 
G|------------------------------------------------------------------------| 
C|------------------------------------------------------------------------| \
                                                                             > x2
D|------------------------------------------------------------------------| /
A|--------12-----------12-----------12-----------12-----------12-9--------| 
F|--9-9-9------9-9-9-9------9-9-9-9------9-9-9-9------9-9-9-9-------------| 
C|------------------------------------------------------------------------| 
G|------------------------------------------------------------------------| 
C|------------------------------------------------------------------------| 
    *Apply a light palm mute to all 9's*


Verse 1 (0:27)

D|------------------------------------------------------------------------|
A|--5---5---5---5---5---5---5-5---5-----5---5---5---5---5---4h5-0---------|
F|--4---4---4---4---4---4---4-4---4-----4---4---4---4---4-----------------|
C|--2---2---2---2---2---2---2-2---2-----2---2---2---2---2-----------------|
G|------------------------------------------------------------------------|
C|------------------------------------------------------------------------|

D|--7-------------------7----------4-----------2--------------------------|
A|-------------------------------------5-------------5--------------------|
F|--------9------------------9-------------6------------------------------|
C|--------------9---------------------------------------------------------|
G|------------------------------------------------------------------------|
C|------------------------------------------------------------------------|
    Let ring - - - - - - - - - - > - - - - - - - - - - - - - - - - - - ->

D|------------------------------------------------------------------------|
A|--5---5---5---5---5---5---5-5---5-----5---5---5---5---5---5---5---------|
F|--4---4---4---4---4---4---4-4---4-----4---4---4---4---4---4---4---------|
C|--2---2---2---2---2---2---2-2---2-----2---2---2---2---2---2---2---------|
G|------------------------------------------------------------------------|
C|------------------------------------------------------------------------|

D|------4--------------4---4-----------4-------------------2--------------|
A|--7------------------------------7-------------------5-------5----------|
F|----------6---6--------------6-----------6---6--------------------------|
C|------------------------------------------------------------------------|
G|------------------------------------------------------------------------|
C|------------------------------------------------------------------------|
    Let ring - - - - - - - - - - - - - - - - - - - - - - - - - - - - - ->

Pre-Chorus 1 (0:46)

D|--7--------------------------------16----------------------12-----------|
A|------------------------------------------14----------14----------------|
F|--------9----------------------------------------16---------------------|
C|--------------9---------------------------------------------------------|
G|------------------------------------------------------------------------|
C|------------------------------------------------------------------------|
    Let ring - - - - - - - - - - - - - - - - - - - - - - - - - - - - - ->

D|--14-------------------------------16-----17-----16---------------------|
A|---------17-------------------------------------------17----------------|
F|----------------16------------------------------------------------------|
C|------------------------------------------------------------------------|
G|------------------------------------------------------------------------|
C|------------------------------------------------------------------------|
    Let ring - - - - - - - - - - - >


Chorus x 2 (0:55)


Verse 2 (1:13)

D|------------------------------------------------------------------------|
A|--5-----------------------------5-----5---5---5---5---5---5-5-----------|
F|--4-----------------------------4-----4---4---4---4---4---4-4-----------|
C|--2-----------------------------2-----2---2---2---2---2---2-2-----------|
G|------------------------------------------------------------------------|
C|------------------------------------------------------------------------|
    Let ring - - - - - - - - - - >

D|--2---------4-------2-------4-------4-----------2-----------------------|
A|--------5-------5-------5-------5---------------------5-----------------|
F|------------------------------------------6-----------------------------|
C|------------------------------------------------------------------------|
G|------------------------------------------------------------------------|
C|------------------------------------------------------------------------|
    Let ring - - - - - - - - - - ->   - - - - - - - - - - - - - - - - - >

D|------------------------------------------------------------------------|
A|--5---5---5---5---5---5---5-5---5-----5---5---5---5---5---x-x-x---------|
F|--4---4---4---4---4---4---4-4---4-----4---4---4---4---4---x-x-x---------|
C|--2---2---2---2---2---2---2-2---2-----2---2---2---2---2---x-x-x---------|
G|------------------------------------------------------------------------|
C|------------------------------------------------------------------------|

D|--------4--------------4---4-----------4-------------------2------------|
A|--7--------------------------------7-------------------5-------5--------|
F|------------6---6--------------6-----------6---6------------------------|
C|------------------------------------------------------------------------|
G|------------------------------------------------------------------------|
C|------------------------------------------------------------------------|
    Let ring - - - - - - - - - - - - - - - - - - - - - - - - - - - - - ->

Pre-Chorus 2 (1:32)

D|------------------------------------------------------------------------|
A|--------------5-------------------------------4-------5---4-------------|
F|--------6-------------------------------4-------------------------------|
C|------------------------------------------------------------------------|
G|--4-------------------------------2-------------------------------------|
C|------------------------------------------------------------------------|
    Let ring - - - - - - - - - - - - - - - - - - - - - - - - - - - - - ->

D|------------------------------------------------------------------------|
A|--------------5-------------------------------5-------------------------|
F|--------6---------------------------------------------------------------|
C|----------------------------------------2-------------------------------|
G|----------------------------------0-------------------------------------|
C|--4---------------------------------------------------------------------|
    Let ring - - - - - - - - - - - - - - - - - - - - - - - - - - - - - ->

D|--14-------------------------------16----------------------12-----------|
A|---------17-------------------------------14----------14----------------|
F|----------------16-------------------------------16---------------------|
C|------------------------------------------------------------------------|
G|------------------------------------------------------------------------|
C|------------------------------------------------------------------------|
    Let ring - - - - - - - - - - - - - - - - - - - - - - - - - - - - - ->

D|--14-------------------------------16-----17-----16---------------------|
A|---------17-------------------------------------------17----------------|
F|----------------16------------------------------------------------------|
C|------------------------------------------------------------------------|
G|------------------------------------------------------------------------|
C|------------------------------------------------------------------------|
    Let ring - - - - - - - - - - - >


Chours x 2 (1:50)


Bridge (2:08)

D|------------------------------------------------------------------------|
A|------------------------------------------------------------------------|
F|--9---------------------------------------------------------------------|
C|------------------------------------------------------------------------|
G|------------------------------------------------------------------------|
C|------------------------------------------------------------------------|
    Let ring and fade out - - - - - - - - - - - - - - - - - - - - - - ->

(2:16)

D|------------------------------------------------------------------------|
A|----------------16-----17---------------------------16-----17-----------|
F|---------16----------------------------------16-------------------------|
C|--------------------------------------16--------------------------------|
G|--14--------------------------------------------------------------------|
C|------------------------------------------------------------------------|
    Let ring - - - - - - - - - - - - - - - - - - - - - - - - - - - - - ->

D|--------------------------------------16-------------16---17------------|
A|----------------16-----17------------------14---17----------------------|
F|--14-----16-------------------------------------------------------------|
C|------------------------------------------------------------------------|
G|------------------------------------------------------------------------|
C|------------------------------------------------------------------------|
    Let ring - - - - - - - - - - - - ->


D|--7p4p0-5p4p0-7p4p0-5p4p0---------7p4p0-5p4p0-7p4p0-5p4p0-0h2-2p0-------|
A|------------------------------4h5---------------------------------------|
F|--------------------------4h6-------------------------------------------|
C|------------------------------------------------------------------------|
G|------------------------------------------------------------------------|
C|------------------------------------------------------------------------| x3

D|--7p4p0-5p4p0-7p4p0-5p4p0---------0-----0-----0-----0-------------------|
A|------------------------------4h5-9-----7-----9-----5-------------------|
F|--------------------------4h6-------------------------------------------|
C|------------------------------------------------------------------------|
G|------------------------------------------------------------------------|
C|------------------------------------------------------------------------|


Chorus x 2 (2:45)

Same as before except the last repeat is:

D|----------------------------------------------------0-0--0--0--0--0-0-0-0---| 
A|--------12-----------12-----------12-----------12---9-9h10-10-10-10p9-9-9---| 
F|--9-9-9------9-9-9-9------9-9-9-9------9-9-9-9------------------------------| 
C|----------------------------------------------------------------------------| 
G|----------------------------------------------------------------------------| 
C|----------------------------------------------------------------------------|
                                                      <  Filtered effect  >
Outro (3:03)

D|------------------------------------------------------------------------|
A|------12---10---9-------------------------------------------------------|
F|--------------------11---9---11--/13-------9-------13-----9---------9---|
C|-----------------------------------------------9----------------9-------|
G|------------------------------------------------------------------------|
C|------------------------------------------------------------------------|

D|---------------------------------------------------------------------------|
A|------12---10---9------------12---9---------------------12---10p9-10p9-9---|
F|--------------------11---9----------------11p9-11p9------------------------|
C|----------------------------------------------------9----------------------|
G|---------------------------------------------------------------------------|
C|---------------------------------------------------------------------------|

D|------------------------------------------------------------------------|
A|------12---10---9-------------------------------------------------------|
F|--------------------11---9---11--/13-------9-------13-----9---------9---|
C|-----------------------------------------------9----------------9-------|
G|------------------------------------------------------------------------|
C|------------------------------------------------------------------------|

D|------------------------------------------------------------------------|
A|--12--------------------------------------------------------------------|
F|---------9---------13-------11h13-11h13---------------------------------|
C|----------------------------------------14---------------\--------------|
G|------------------------------------------------------------------------|
C|------------------------------------------------------------------------|



| /  slide up
| \  slide down
| h  hammer-on
| p  pull-off

            
            
Suggest correction
Creating personal tab
Creating personal tab
You can edit any tab online and save it as your Personal.

You can edit, replace or remove any tab part or add personal notes – all changes will be seen only by you.

Personal tabs can be accessed anytime from any device, even offline.
Learn more »
There is a new version of this tab from 1 day ago which you may like more. Go check it out:
comments
print report bad tab
guest
You may want to rate the tab now too:
select rating
Wanna post a correction for this tab? Suggest correction