Oops, an error
Loading. Please wait.

Serpents tab

7,771 views 99 this week
no commentswrite comment
1 2 3 4 5
x 6
add to favorites
×
Save as Personal and add changes to this tab that will be seen only by you. Learn more ›
×
You can save this tab as Personal to edit and correct it or add notes. All changes will be seen only by you. Learn more »
launch autoscroll
font size
0
reset
how to read this tab
guitar tuner
edit
Autoscroll
slow
fast
+/-
esc
set tempo
stop
-------------------------------------------------------------------------------------------------------------
Serpents - Neck Deep
-------------------------------------------------------------------------------------------------------------
Tabbed by: Blink182Bouncer

Tuning: Drop C#

This Is My Tab Of Serpents By Neck Deep. This is perhaps my favorite Neck Deep song
and it's been a blast tabbing this! Don't be afraid to change things up and play to
the rhythm as you see fit, as no tab is perfect, and perfect is boring. The lead is
very faint in this song and was a pain to tab so you will have to listen close to
find how to play it exactly.

Chords/Rhythm - Guitar 1
Lead/Riff - Guitar 2

Order Of Parts and Key
Intro - "Don't Get Too Close"
Bridge - "She Sleeps Beneath The Surface"
Transition - Short Palm-Muted Part
Verse 1 - "A Dark Face In A Corridor"
Chorus - "I Gave Her My Heart"
Verse 2 (Same Guitar as Intro) - "She Picked Me Up From My Decline"
Chorus - "I Gave Her My Heart"
Breakdown - "SHE SLEEPS BENEATH THE SURFACE!"
Outro - Everything After Breakdown



[Intro Chords]

Eb|-----|-----|
Bb|-----|-----|
Gb|--7--|--3--|
Db|--7--|--3--|
Ab|--5--|--1--|
C#|-----|-----|


[Intro Lead]

Eb|-----------|--------------|
Bb|--1--3-----|--1--3--------|
Gb|--------2--|--------2--0--|
Db|-----------|--------------|
Ab|-----------|--------------|
C#|-----------|--------------|


[Bridge Rhythm]

Eb|-----|-----|-----|--------------|
Bb|-----|-----|-----|--------------|
Gb|--7--|--5--|--3--|--2--2--------|
Db|--7--|--5--|--3--|--2--2--5--3--|
Ab|--5--|--3--|--1--|--0--0--5--3--|
C#|-----|-----|-----|--------5--3--|


[Bridge Riff]

Eb|--------1-----|
Bb|--1--3-----3--|
Gb|--------------|
Db|--------------|
Ab|--------------|
C#|--------------|


[Bridge Lead]
(Bridge Riff Stops):

Eb|------------|
Bb|------------|
Gb|--10--9--7--|
Db|--x---x--x--|
Ab|--8---7--5--|
C#|------------|


[Transition]

Eb|-----|
Bb|-----|
Gb|--7--|
Db|--7--|
Ab|--5--|
C#|-----|
     

[Verse 1 Rhythm]

Eb|------------------|-----------------|
Bb|------------------|-----------------|
Gb|------------------|-----------------|
Db|--0-----3p2--3p2--|-----3-----2--5--|
Ab|--0---------------|-----3-----3--5--|
C#|--0---------------|-----3-----2--5--|


[Verse 1 Riff]
(Played Twice):

Eb|--8--------------|--8------------------|
Bb|-----6-----8--6--|-----6--8--6--8--10--|
Gb|-----------------|---------------------| 
Db|-----------------|---------------------|
Ab|-----------------|---------------------|
C#|-----------------|---------------------|
   Played 4 Times   ^


[Chorus/Breakdown Chords]

Eb|--------------|
Bb|--------------|
Gb|-----3-----5--|
Db|--0--3--3--5--|
Ab|--0--1--3--3--|
C#|--0-----3-----|


[Chorus Lead]
Tremolo Picked(Very Faint):

Eb|--------1--|-----3--1--0--1--|--3--3--1--5--|--3--0--1--|
Bb|--1--3-----|--1--------------|--------------|-----------|
Gb|-----------|-----------------|--------------|-----------|
Db|-----------|-----------------|--------------|-----------|
Ab|-----------|-----------------|--------------|-----------|
C#|-----------|-----------------|--------------|-----------|


[Breakdown Riff]
(Palm-Muted):

Eb|--------------------------------------|--------------|--------------|
Bb|--6--5-----6--5-----6--5-----6--5-----|--6--5-----5--|--6--5-----8--|
Gb|--------5--------5--------5--------5--|--------5-----|--------5-----|
Db|--------------------------------------|--------------|--------------|
Ab|--------------------------------------|--------------|--------------|
C#|--------------------------------------|--------------|--------------|


[Outro]

Eb|-----|-----|-----|-----------|-----|
Bb|-----|-----|-----|-----------|-----|
Gb|--7--|--5--|--3--|--2--------|-----|
Db|--7--|--5--|--3--|--2--5--3--|--0--|
Ab|--5--|--3--|--1--|--0--5--3--|--0--|
C#|-----|-----|-----|-----5--3--|--0--|
 
************************************

| x  Dead note
| p  Pull-off
| b  Bend 

************************************

            
            
Suggest correction
Creating personal tab
Creating personal tab
You can edit any tab online and save it as your Personal.

You can edit, replace or remove any tab part or add personal notes – all changes will be seen only by you.

Personal tabs can be accessed anytime from any device, even offline.
Learn more »
comments
print report bad tab
guest
You may want to rate the tab now too:
select rating
Wanna post a correction for this tab? Suggest correction