Oops, an error
Loading. Please wait.

Smooth Seas Dont Make Good Sailors Tab

133 views 15 this week
no commentswrite comment
1 2 3 4 5
3 more votes to show rating
add to favorites
launch autoscroll
font size
0
reset
how to read this tab
guitar tuner
Autoscroll
slow
fast
+/-
esc
set tempo
stop
Help us to improve Ultimate-Guitar.com Take our survey!
×
Author
Difficulty
Tuning
novice
C G C F A D
Artist: Neck Deep
Song: Smooth Seas Don't Make Good Sailors
Album: Life's Not Out to Get You
Tuning: Drop C Tuning (C G C F A D)

RHYTHM GUITAR ONLY!

I think this sounds pretty good. If you any have any corrections to suggest, leave them in the comments
section and don't forget to rate the tab!

Cheers!


INTRO
D|------------------------------------------------------------|
A|------------------------------------------------------------|
F|-7-------------------------7--------------------------------|
C|-7-(x16)--4------5---------7-(x16)--9------2-------5--------|
G|-5--------4-(x8)-5-(x8)----5--------9-(x8)-2-(x4)--5-(x4)---|
C|----------4------5------------------9------2-------5--------|

D|-----------------------------------------------------------------------------|
A|-----------------------------------------------------------------------------|
F|-7777-7-77-7777--------------------7777-7-77-7777----------------------------|
C|-7777-7-77-7777---5555-5-55-4444---7777-7-77-7777---9-------2-------5--------|
G|-5555-5-55-5555---5555-5-55-4444---5555-5-55-5555---9-(x8)--2-(x4)--5-(x4)---|
C|------------------5555-5-55-4444--------------------9-------2-------5--------|
                                                            
VERSE
D|------------------------------------------------------------------------|
A|------------------------------------------------------------------------|
F|------------------------------------------------------------------------|
C|-00000000000000000000000000000000--2222222222222222--7777777777777777---|
G|-00000000000000000000000000000000--2222222222222222--7777777777777777---|
C|-00000000000000000000000000000000--2222222222222222--7777777777777777---|
   ................................  ................  ................

D|------------------------------------------------------------------------|
A|------------------------------------------------------------------------|
F|------------------------------------------------------------------------|
C|-0000000-0000-00--0000000-0000-00--2222222-2222-22--7777777-7777--12\---|
G|-0000000-0000-00--0000000-0000-00--2222222-2222-22--7777777-7777--12\---|
C|-0000000-0000-00--0000000-0000-00--2222222-2222-22--7777777-7777--12\---|
   ....... .... ..  ....... .... ..  ....... .... ..  ....... ....

PRE-CHORUS
D|---------------------------------------------------------------------------|
A|---------------------------------------------------------------------------|
F|-----7-------7-----------------7------7--------------7-------7-------------|
C|-00--x---00--x-------------00--x--00--x----------00--x---00--x-------------|
G|-00--5---00--5-------------00--5--00--5----------00--5---00--5-------------|
C|-00------00------0-2-5-4---00-----00-----99-77---00------00------0-2-5-4---|

D|-------------------|
A|-------------------|
F|-------------------|
C|-22222222--55555---|
G|-22222222--55555---|
C|-22222222--55555---|
             ....

CHORUS
D|--------------------------------------------------------|
A|--------------------------------------------------------|
F|-7------------------------------------------------------|
C|-7-(x16)--4------5-------9------7-------5-------4-------|
G|-5--------4-(x8)-5-(x8)--9-(x8)-7-(x8)--5-(x12)-4-(x4)--|
C|----------4------5-------9------7-------5-------4-------|

D|---------------------------------------------------------------------------|
A|---------------------------------------------------------------------------|
F|-7777-7-77-7777--------------------7777-7-77-7777--------------------------|
C|-7777-7-77-7777---5555-5-55-4444---7777-7-77-7777---9------2------5--------|
G|-5555-5-55-5555---5555-5-55-4444---5555-5-55-5555---9-(x8)-2-(x4)-5-(x2)---|
C|------------------5555-5-55-4444--------------------9------2------5--------|

VERSE 2
D|-----------------------------------------------------|
A|-----------------------------------------------------|
F|-777----------------777------------------------------|
C|-777-44-55555-57----777-44-55555-54------------------|
G|-555-44-55555-57----555-44-55555-54----(all this x4)-|
C|-----44-55555-57--------44-55555-54------------------|
       .  .     .         .  .     .   

PRE-CHORUS
D|------------------------------------|
A|------------------------------------|
F|-----7-----7---------------7-----7--|
C|-00--x-----x-----------00--x--00-x--|
G|-00--5--00-5-----------00--5--00-5--|
C|-00-----00----0-2-5-4--00-----00----|

CHORUS
D|--------------------------------------------------------|
A|--------------------------------------------------------|
F|-7------------------------------------------------------|
C|-7-(x16)--4------5-------9------7-------5-------4-------|
G|-5--------4-(x8)-5-(x8)--9-(x8)-7-(x8)--5-(x12)-4-(x4)--|
C|----------4------5-------9------7-------5-------4-------|

D|---------------------------------------------------------------------------|
A|---------------------------------------------------------------------------|
F|-7777-7-77-7777--------------------7777-7-77-7777--------------------------|
C|-7777-7-77-7777---5555-5-55-4444---7777-7-77-7777---9------2------5--------|
G|-5555-5-55-5555---5555-5-55-4444---5555-5-55-5555---9-(x8)-2-(x4)-5-(x2)---|
C|------------------5555-5-55-4444--------------------9------2------5--------|

BRIDGE
D|-----------------------------------------------------|
A|-----------------------------------------------------|
F|-------------------7---------------------------------|
C|-2--------5--------7-(x16)--7---------(all this x2)--|
G|-2-(x16)--5-(x16)--5--------7-(x16)------------------|
C|-2--------5-----------------7------------------------|

D|--------------------------------------------------|
A|--------------------------------------------------|
F|---------------------------------------------7~---|
C|-2~--2~--2~--2~--2~----5~--5~--5~--5~--5~----7~---| (~ = let chord ring)
G|-2~--2~--2~--2~--2~----5~--5~--5~--5~--5~----5~---|
C|-2~--2~--2~--2~--2~----5~--5~--5~--5~--5~---------|

(no rhythm guitar during the quiet part)

PRE-CHORUS
D|-----------------|
A|-----------------|
F|-----------------|
C|-22222222-55555--|
G|-22222222-55555--|
C|-22222222-55555--|
   ........

CHORUS
D|--------------------------------------------------------|
A|--------------------------------------------------------|
F|-7------------------------------------------------------|
C|-7-(x16)--4------5-------9------7-------5-------4-------|
G|-5--------4-(x8)-5-(x8)--9-(x8)-7-(x8)--5-(x12)-4-(x4)--|
C|----------4------5-------9------7-------5-------4-------|

D|---------------------------------------------------------------------------|
A|---------------------------------------------------------------------------|
F|-7777-7-77-7777--------------------7777-7-77-7777--------------------------|
C|-7777-7-77-7777---5555-5-55-4444---7777-7-77-7777---9------2------5--------|
G|-5555-5-55-5555---5555-5-55-4444---5555-5-55-5555---9-(x8)-2-(x4)-5-(x2)---|
C|------------------5555-5-55-4444--------------------9------2------5--------|

D|-------------------------------------------------------|
A|-------------------------------------------------------|
F|-------------------------------------------------------|
C|-9-------2-------5---------9-------2-------5-----------|
G|-9-(x8)--2-(x4)--5-(x4)----9-(x8)--2-(x4)--5-(x4)--00--|
C|-9-------2-------5---------9-------2-------5-------00--|
                                                     ..
Suggest correction
Give kudos to tab author, rate the tab!
1 2 3 4 5
comments
print report bad tab
guest
You may want to rate the tab now too:
select rating
Wanna post a correction for this tab? Suggest correction