Oops, an error
Loading. Please wait.

The Peace And The Panic album tab

1,327 views 174 this week
4 commentsread comments
1 2 3 4 5
x 6
add to favorites
×
Save as Personal and add changes to this tab that will be seen only by you. Learn more ›
×
You can save this tab as Personal to edit and correct it or add notes. All changes will be seen only by you. Learn more »
launch autoscroll
font size
0
reset
how to read this tab
guitar tuner
edit
Autoscroll
slow
fast
+/-
esc
set tempo
stop
Author
Difficulty
About this tab version
All guitar parts tabbed in accurate tunings, including bonus tracks. Was this info helpful? Yes No
Neck Deep - The Peace And The Panic (2017)

Tabbed by: Elias (blink182bouncer)

This is a a full album tab for Neck Deep's new album "The Peace And The Panic"

*To skip to a certain song, hold Ctrl + F, type T followed by the track number, and click Next.*

TRACKLIST
T01. Motion Sickness
T02. Happy Judgement Day
T03. The Grand Delusion
T04. Parachute
T05. In Bloom
T06. Don't Wait (Ft. Sam Carter of Architects)
T07. Critical Mistake
T08. Wish You Were Here
T09. Heavy Lies
T10. 19 Seventy Sumthin'
T11. Where Do We Go When We Go
Bonus Tracks:
T12. Beautiful Madness
T13. Worth It

____________________________________________________________________________________________________

                                        T01.   MOTION SICKNESS
____________________________________________________________________________________________________



Tuning: Drop D (D A D G B E)


[Intro] Guitar 1: (x3)
e|-------------------------------------------------------------10--|
B|--------10----------10----------10----------10-----------10--10--|
G|-7-7-7-----7-7-7-7-----7-7-7-7-----7-7-7-7------7-7-7-7----------|
D|-----------------------------------------------------------------|
A|-----------------------------------------------------------------|
D|-----------------------------------------------------------------|

e|---------------------------------------------------------------------|
B|--------10----------10----------10----------10---------------10---7--|
G|-7-7-7-----7-7-7-7-----7-7-7-7-----7-7-7-7------7--7--7--7----7---7--|
D|---------------------------------------------------------------------|
A|---------------------------------------------------------------------|
D|---------------------------------------------------------------------|

[Intro] Guitar 2: (x2)
e|----------------------------------------------------|
B|----------------------------------------------------|
G|----------------------------------------------------|
D|--9-9-9-9----5-5-5-5----0-0-0-0------0-0-0---0-0-0--|
A|--9-9-9-9----5-5-5-5----0-0-0-0------0-0-0---0-0-0--|
D|--9-9-9-9----5-5-5-5----0-0-0-0------0-0-0---0-0-0--|

e|-----------------------------------------------------------|
B|-----------------------------------------------------------|
G|-----------------------------------------------------------|
D|--9-9-9-9---5-5-5-5---0-0-0-0---0-0-0-0--------------------|
A|--9-9-9-9---5-5-5-5---0-0-0-0---0-0-0-0--------------------|
D|--9-9-9-9---5-5-5-5---0-0-0-0---0-0-0-0--0--0h2-2-2-2/4-4--|


[Verse] Guitar 1
"It's Time To Kick The Habit..."
e|--------------------------|--------------------------|
B|--7--7--7--7--7--7--7--7--|--7--7--7--7--7--7--7--7--|
G|--7--7--7--7--7--7--6--6--|--7--7--7--7--7--7--7--7--|
D|--7--7--7--7--7--7--7--7--|--7--7--7--7--7--7--7--7--|
A|--------------------------|--------------------------|
D|--------------------------|--------------------------|

e|-------------------------------------|
B|--5------------8p7-------------------|
G|-----7-----7--------7--7/9--7--7--7--|
D|--------7----------------------------|
A|-------------------------------------|
D|-------------------------------------|

e|--------------------------|--------------------------|
B|--7--7--7--7--7--7--7--7--|--7--7--7--7--7--7--7--7--|
G|--7--7--7--7--7--7--6--6--|--7--7--7--7--7--7--7--7--|
D|--7--7--7--7--7--7--7--7--|--7--7--7--7--7--7--7--7--|
A|--------------------------|--------------------------|
D|--------------------------|--------------------------|

e|----------------------------------|
B|--5------------8p7----------------|
G|-----7-----7--------7--6/7--7--7--|
D|--------7-------------------------|
A|----------------------------------|
D|----------------------------------|

[Verse] Guitar 2
"It's Been A Hell Of A Year..."
e|--------------------|-----------------------|
B|--------------------|-----------------------|
G|--------------------|-----------------------|
D|--5--5--5--5--5--5--|--5--5--5--5--5--5--5--|
A|--5--5--5--5--5--5--|--5--5--5--5--5--5--5--|
D|--5--5--5--5--5--5--|--5--5--5--5--5--5--5--|

e|----------------|----------------|
B|----------------|----------------|
G|----------------|----------------|
D|----------------|----------------|
A|----------------|----------------|
D|--0----0--0--0--|--0----0--0--0--|

e|--------------------|-----------------------|
B|--------------------|-----------------------|
G|--------------------|-----------------------|
D|--5--5--5--5--5--5--|--5--5--5--5--5--5--5--|
A|--5--5--5--5--5--5--|--5--5--5--5--5--5--5--|
D|--5--5--5--5--5--5--|--5--5--5--5--5--5--5--|

[Pre-Chorus] Guitar 1:
"Talking To A Ghost..."
e|--12----------|--14------------------|--12----------|------15--14------|
B|------15------|------15----------15--|------15------|--15----------15--|
G|----------14--|----------14--16------|----------14--|------------------|
D|--------------|----------------------|--------------|------------------|
A|--------------|----------------------|--------------|------------------|
D|--------------|----------------------|--------------|------------------|

[Pre-Chorus] Guitar 1:
"Talking To A Ghost..."
e|--------------------------------|--------------------------------|
B|--------------------------------|--------------------------------|
G|--------------------------------|--------------------------------|
D|--9--9--9--9--9----9--9---9--9--|--7--7--7--7--7----7--7---7--7--|
A|--9--9--9--9--9----9--9---9--9--|--7--7--7--7--7----7--7---7--7--|
D|--9--9--9--9--9----9--9---9--9--|--7--7--7--7--7----7--7---7--7--|

e|--------------------------------|-----------------------------|
B|--------------------------------|-----------------------------|
G|--------------------------------|-----------------------------|
D|--2--2--2--2--2----2--2---2--2--|--5--5--5--5--5--5--5--5--5--|
A|--2--2--2--2--2----2--2---2--2--|--5--5--5--5--5--5--5--5--5--|
D|--2--2--2--2--2----2--2---2--2--|--5--5--5--5--5--5--5--5--5--|

[Chorus] Guitar 1: (x2)
e|-------------------------------------------------------------10--|
B|--------10----------10----------10----------10-----------10--10--|
G|-7-7-7-----7-7-7-7-----7-7-7-7-----7-7-7-7------7-7-7-7----------|
D|-----------------------------------------------------------------|
A|-----------------------------------------------------------------|
D|-----------------------------------------------------------------|

e|---------------------------------------------------------------------|
B|--------10----------10----------10----------10---------------10---7--|
G|-7-7-7-----7-7-7-7-----7-7-7-7-----7-7-7-7------7--7--7--7----7---7--|
D|---------------------------------------------------------------------|
A|---------------------------------------------------------------------|
D|---------------------------------------------------------------------|

[Chorus] Guitar 2: (x2)
e|----------------------------------------------------|
B|----------------------------------------------------|
G|----------------------------------------------------|
D|--9-9-9-9----5-5-5-5----0-0-0-0------0-0-0---0-0-0--|
A|--9-9-9-9----5-5-5-5----0-0-0-0------0-0-0---0-0-0--|
D|--9-9-9-9----5-5-5-5----0-0-0-0------0-0-0---0-0-0--|

e|-----------------------------------------------------------|
B|-----------------------------------------------------------|
G|-----------------------------------------------------------|
D|--9-9-9-9---5-5-5-5---0-0-0-0---0-0-0-0--------------------|
A|--9-9-9-9---5-5-5-5---0-0-0-0---0-0-0-0--------------------|
D|--9-9-9-9---5-5-5-5---0-0-0-0---0-0-0-0--0--0h2-2-2-2/4-4--|


[Verse] Guitar 1
"Between The Peace And The Panic..."
e|--------------------------|--------------------------|
B|--7--7--7--7--7--7--7--7--|--7--7--7--7--7--7--7--7--|
G|--7--7--7--7--7--7--6--6--|--7--7--7--7--7--7--7--7--|
D|--7--7--7--7--7--7--7--7--|--7--7--7--7--7--7--7--7--|
A|--------------------------|--------------------------|
D|--------------------------|--------------------------|

e|-------------------------------------|
B|--5------------8p7-------------------|
G|-----7-----7--------7--7/9--7--7--7--|
D|--------7----------------------------|
A|-------------------------------------|
D|-------------------------------------|

e|--------------------------|--------------------------|
B|--7--7--7--7--7--7--7--7--|--7--7--7--7--7--7--7--7--|
G|--7--7--7--7--7--7--6--6--|--7--7--7--7--7--7--7--7--|
D|--7--7--7--7--7--7--7--7--|--7--7--7--7--7--7--7--7--|
A|--------------------------|--------------------------|
D|--------------------------|--------------------------|

e|----------------------------------|
B|--5------------8p7----------------|
G|-----7-----7--------7--6/7--7--7--|
D|--------7-------------------------|
A|----------------------------------|
D|----------------------------------|

[Verse] Guitar 2
"I Need A Cleaner Frequency..."
e|--------------------|-----------------------|
B|--------------------|-----------------------|
G|--------------------|-----------------------|
D|--5--5--5--5--5--5--|--5--5--5--5--5--5--5--|
A|--5--5--5--5--5--5--|--5--5--5--5--5--5--5--|
D|--5--5--5--5--5--5--|--5--5--5--5--5--5--5--|

e|----------------|----------------|
B|----------------|----------------|
G|----------------|----------------|
D|----------------|----------------|
A|----------------|----------------|
D|--0----0--0--0--|--0----0--0--0--|

e|--------------------|-----------------------|
B|--------------------|-----------------------|
G|--------------------|-----------------------|
D|--5--5--5--5--5--5--|--5--5--5--5--5--5--5--|
A|--5--5--5--5--5--5--|--5--5--5--5--5--5--5--|
D|--5--5--5--5--5--5--|--5--5--5--5--5--5--5--|

Pre-Chorus] Guitar 1:
"But then I find myself in bed..."
e|-----------|----------------|-----------|----------|
B|-----------|----------------|--------3--|----------|
G|--------7--|--------6--7p6--|-----2-----|--------7-|
D|-----0-----|-----0----------|-----------|-----0----|
A|-----------|----------------|-----------|----------|
D|--9--------|--7-------------|--2--------|--5-------|

e|--12----------|--14------------------|--12----------|------15--14------|
B|------15------|------15----------15--|------15------|--15----------15--|
G|----------14--|----------14--16------|----------14--|------------------|
D|--------------|----------------------|--------------|------------------|
A|--------------|----------------------|--------------|------------------|
D|--------------|----------------------|--------------|------------------|

[Pre-Chorus] Guitar 2: (x2)
"But then I find myself in bed..."
e|--------------------------------|--------------------------------|
B|--------------------------------|--------------------------------|
G|--------------------------------|--------------------------------|
D|--9--9--9--9--9----9--9---9--9--|--7--7--7--7--7----7--7---7--7--|
A|--9--9--9--9--9----9--9---9--9--|--7--7--7--7--7----7--7---7--7--|
D|--9--9--9--9--9----9--9---9--9--|--7--7--7--7--7----7--7---7--7--|

e|--------------------------------|---------------------------------|
B|--------------------------------|---------------------------------|
G|--------------------------------|---------------------------------|
D|--2--2--2--2--2----2--2---2--2--|--5--5--5--5--5----5--5----5--5--|
A|--2--2--2--2--2----2--2---2--2--|--5--5--5--5--5----5--5----5--5--|
D|--2--2--2--2--2----2--2---2--2--|--5--5--5--5--5----5--5----5--5--|

[Chorus] Guitar 1: (x2)
e|-------------------------------------------------------------10--|
B|--------10----------10----------10----------10-----------10--10--|
G|-7-7-7-----7-7-7-7-----7-7-7-7-----7-7-7-7------7-7-7-7----------|
D|-----------------------------------------------------------------|
A|-----------------------------------------------------------------|
D|-----------------------------------------------------------------|

e|---------------------------------------------------------------------|
B|--------10----------10----------10----------10---------------10---7--|
G|-7-7-7-----7-7-7-7-----7-7-7-7-----7-7-7-7------7--7--7--7----7---7--|
D|---------------------------------------------------------------------|
A|---------------------------------------------------------------------|
D|---------------------------------------------------------------------|

[Chorus] Guitar 2: (x2)
e|----------------------------------------------------|
B|----------------------------------------------------|
G|----------------------------------------------------|
D|--9-9-9-9----5-5-5-5----0-0-0-0------0-0-0---0-0-0--|
A|--9-9-9-9----5-5-5-5----0-0-0-0------0-0-0---0-0-0--|
D|--9-9-9-9----5-5-5-5----0-0-0-0------0-0-0---0-0-0--|

e|-----------------------------------------------------------|
B|-----------------------------------------------------------|
G|-----------------------------------------------------------|
D|--9-9-9-9---5-5-5-5---0-0-0-0---0-0-0-0--------------------|
A|--9-9-9-9---5-5-5-5---0-0-0-0---0-0-0-0--------------------|
D|--9-9-9-9---5-5-5-5---0-0-0-0---0-0-0-0--0--0h2-2-2-2/4-4--|


[Bridge] Guitar 1 (x2)
e|-----------------|-----------------|-----------------|-----------------|
B|-----------------|-----------------|-----------------|--7--7--7--7--7--|
G|--7--7--6--7--7--|--7--7--6--7--7--|--7--7--6--7--7--|--7--7--7--7--7--|
D|--7--7--7--7--7--|--7--7--7--7--7--|--7--7--7--7--7--|-----------------|
A|-----------------|-----------------|-----------------|-----------------|
D|-----------------|-----------------|-----------------|-----------------|

[Bridge] Guitar 2:
e|-----------------|-----------|
B|-----------------|-----------|
G|-----------------|-----------|
D|--5--5--5--5--5--|--5--5--5--|
A|--5--5--5--5--5--|--5--5--5--|
D|--5--5--5--5--5--|--5--5--5--|

[Solo] Guitar 1:
e|------------------------------------------------|----------------------------------------------|
B|--10p7-----8p7-----10p7-----8p7-----------------|--10p7-----8p7-----10p7-----8p7---------------|
G|--------7-------7--------7-------7--------6--7--|--------7-------7--------7-------7--7/9--9\7--|
D|------------------------------------7--9--------|----------------------------------------------|
A|------------------------------------------------|----------------------------------------------|
D|------------------------------------------------|----------------------------------------------|(x3)

e|------------------------------------------------|---------------|
B|--10p7-----8p7-----10p7-----8p7-----------------|---------------|
G|--------7-------7--------7-------7--------6--7--|--7--9--11--7--|
D|------------------------------------7--9--------|---------------|
A|------------------------------------------------|---------------|
D|------------------------------------------------|---------------|

[Solo] Guitar 2: (x2) 
e|------------------------------------------|------------------------------------------|
B|------------------------------------------|------------------------------------------|
G|------------------------------------------|------------------------------------------|
D|--0--0--0--0----0--0--0--0----0--0--0--0--|--2--2--2--2----2--2--2--2----2--2--2--2--|
A|--0--0--0--0----0--0--0--0----0--0--0--0--|--2--2--2--2----2--2--2--2----2--2--2--2--|
D|--0--0--0--0----0--0--0--0----0--0--0--0--|--2--2--2--2----2--2--2--2----2--2--2--2--|

e|------------------------------------------|------------------------------------------|
B|------------------------------------------|------------------------------------------|
G|------------------------------------------|------------------------------------------|
D|--5--5--5--5----5--5--5--5----5--5--5--5--|--5--5--5--5----5--5--5--5----5--5--5--5--|
A|--5--5--5--5----5--5--5--5----5--5--5--5--|--5--5--5--5----5--5--5--5----5--5--5--5--|
D|--5--5--5--5----5--5--5--5----5--5--5--5--|--5--5--5--5----5--5--5--5----5--5--5--5--|

[Chorus] Guitar 1:
e|-------------------------------------------------------------10--|
B|--------10----------10----------10----------10-----------10--10--|
G|-7-7-7-----7-7-7-7-----7-7-7-7-----7-7-7-7------7-7-7-7----------|
D|-----------------------------------------------------------------|
A|-----------------------------------------------------------------|
D|-----------------------------------------------------------------|

e|---------------------------------------------------------------------|
B|--------10----------10----------10----------10---------------10---7--|
G|-7-7-7-----7-7-7-7-----7-7-7-7-----7-7-7-7------7--7--7--7----7---7--|
D|---------------------------------------------------------------------|
A|---------------------------------------------------------------------|
D|---------------------------------------------------------------------|

e|-------------------------------------------------------------10--|
B|--------10----------10----------10----------10-----------10--10--|
G|-7-7-7-----7-7-7-7-----7-7-7-7-----7-7-7-7------7-7-7-7----------|
D|-----------------------------------------------------------------|
A|-----------------------------------------------------------------|
D|-----------------------------------------------------------------|

e|-------------------------------------------------------------------|
B|--------10----------10----------10----------10-----7h8--8--8--8p7--|
G|-7-7-7-----7-7-7-7-----7-7-7-7-----7-7-7-7------7--7-7--7--7--7----|
D|-------------------------------------------------------------------|
A|-------------------------------------------------------------------|
D|-------------------------------------------------------------------|

[Chorus] Guitar 2: (x2)
e|----------------------------------------------------|
B|----------------------------------------------------|
G|----------------------------------------------------|
D|--9-9-9-9----5-5-5-5----0-0-0-0------0-0-0---0-0-0--|
A|--9-9-9-9----5-5-5-5----0-0-0-0------0-0-0---0-0-0--|
D|--9-9-9-9----5-5-5-5----0-0-0-0------0-0-0---0-0-0--|

e|-----------------------------------------------------------|
B|-----------------------------------------------------------|
G|-----------------------------------------------------------|
D|--9-9-9-9---5-5-5-5---0-0-0-0---0-0-0-0--------------------|
A|--9-9-9-9---5-5-5-5---0-0-0-0---0-0-0-0--------------------|
D|--9-9-9-9---5-5-5-5---0-0-0-0---0-0-0-0--0--0h2-2-2-2/4-4--|

[Solo 2] Guitar 1
e|------------------------|-----------------------|-------------------------|------------------------|
B|--10--8--7-----------7--|-----------7-----------|--10--8--7--------10-----|-----7--7p8--8--8--8p7--|
G|------------9--7--9-----|--7-----7-----7-----7--|------------9--7------7--|--9-----7----7--7--7----|
D|------------------------|-----7-----------7-----|-------------------------|------------------------|
A|------------------------|-----------------------|-------------------------|------------------------|
D|------------------------|-----------------------|-------------------------|------------------------|

e|------------------------|-----------------------|
B|--10--8--7-----------7--|-----------7-----------|
G|------------9--7--9-----|--7-----7-----7-----7--|
D|------------------------|-----7-----------7-----|
A|------------------------|-----------------------|
D|------------------------|-----------------------|

[Solo 2] Guitar 2:
e|----------------------------------------------------|
B|----------------------------------------------------|
G|----------------------------------------------------|
D|--9-9-9-9----5-5-5-5----0-0-0-0------0-0-0---0-0-0--|
A|--9-9-9-9----5-5-5-5----0-0-0-0------0-0-0---0-0-0--|
D|--9-9-9-9----5-5-5-5----0-0-0-0------0-0-0---0-0-0--|

e|-----------------------------------------------------------|
B|-----------------------------------------------------------|
G|-----------------------------------------------------------|
D|--9-9-9-9---5-5-5-5---0-0-0-0---0-0-0-0--------------------|
A|--9-9-9-9---5-5-5-5---0-0-0-0---0-0-0-0--------------------|
D|--9-9-9-9---5-5-5-5---0-0-0-0---0-0-0-0--0--0h2-2-2-2/4-4--|


____________________________________________________________________________________________________

                                   T02.   HAPPY JUDGEMENT DAY
____________________________________________________________________________________________________

Tuning: Drop C# (C# G# C# F# A# D#)


[Intro] Guitar 1:(x4)
D#|--0---0---0---0---0--0--0--0---0--0----0---0----0--0--0--------|
A#|-13--13--12--12--10--8--8/10--10--5----5---3/5--5--5--3/5\3p0--|
F#|---------------------------------------------------------------| 
C#|---------------------------------------------------------------|
G#|---------------------------------------------------------------|
C#|---------------------------------------------------------------|

[Intro] Guitar 2:
D#|----------------------------------|
A#|----------------------------------|
F#|--------5--5--4/5--5----4/5\4-----|
C#|--2--3--5--5--x-x--x----x-x-x--5--|
G#|--2--3--3--3--2/3--3----2/3\2--5--|
C#|--2--3-------------------------5--|

D#|-----0--0--0--0----------------------------------|
A#|-----1--1--1--1----------------------------------|
F#|--2--2--2--2--2--------5--5--4/5--5----4/5\4-----|
C#|--2--2--2--2--2--2--3--5--5--x-x--x----x-x-x--5--|
G#|--0--0--0--0--0--2--3--3--3--2/3--3----2/3\2--5--|
C#|-----------------2--3-------------------------5--|(x2)


[Verse] Guitar 1:
"Oh What A Time To Be Alive..."
D#|------------------------------------------------|---------------------------------------------------------|
A#|------------------------------------------------|---------------------------------------------------------|
F#|-10-10-10--10-7-7-7---7-9-9-9----9--------------|-10-10-10--10--12--12-12----12--5--5--5----5-------------|
C#|--x--x--x---x-x-x-x---x-x-x-x----x--------------|--x--x--x---x---x---x--x-----x--x--x--x----x-------------|
G#|--8--8--8---8-5-5-5---5-7-7-7----7---2h3p2------|--8--8--8---8--10--10-10----10--3--3--3----3--2h3p2------|
C#|--------------------------------------------5---|------------------------------------------------------5--|

[Verse] Guitar 2: (x2)
"Oh What A Time To Be Alive..."
D#|------------------------------------------------------|
A#|------------------------------------------------------|
F#|-----------------------------5--5--5----5-------------|
C#|---3--3--3---3--5--5--5---5--5--5--5----5-------------|
G#|---3--3--3---3--5--5--5---5--3--3--3----3---2h3p2-----|
C#|---3--3--3---3--5--5--5---5------------------------5--|


[PreChorus] Guitar 1:
"And Keep Your Eyes Locked Tight..."
D#|------------------------------|--------------------------|------------------------------|-----|
A#|------------------------------|--------------------------|------------------------------|-----|
F#|-10-10-10-10--12--12--12--12--|--9--9--7--7--5--5--5--5--|-10-10-10-10--12--12--12--12--|--5--|
C#|--x--x--x--x---x---x---x---x--|--x--x--x--x--x--x--x--x--|--x--x--x--x---x---x---x---x--|--x--|
G#|--8--8--8--8--10--10--10--10--|--7--7--5--5--3--3--3--3--|--8--8--8--8--10--10--10--10--|--3--|
C#|------------------------------|--------------------------|------------------------------|-----|


[PreChorus] Guitar 2:
D#|----------------------------------------------------------------------------------------|
A#|----------------------------------------------------------------------------------------|
F#|----------------------------------------------5--5--5----3--3--3----2--2--2----2--2--2--|
C#|--3--3--3----3--3--3----5--5--5----5--5--5----5--5--5----3--3--3----2--2--2----2--2--2--|
G#|--3--3--3----3--3--3----5--5--5----5--5--5----3--3--3----1--1--1----0--0--0----0--0--0--|
C#|--3--3--3----3--3--3----5--5--5----5--5--5----------------------------------------------|


D#|--------------------------------------------|--------------------------|
A#|--------------------------------------------|--------------------------|
F#|--------------------------------------------|--------------------------|
C#|--3--3--3----3--3--3----5--5--5----5--5--5--|--2--2--2--2--2--2--2--2--|
G#|--3--3--3----3--3--3----5--5--5----5--5--5--|--0--0--0--0--0--0--0--0--|
C#|--3--3--3----3--3--3----5--5--5----5--5--5--|--------------------------|


[Chorus] Guitar 1: (x2)
"Is It Just Me?"
D#|-----------|-----------|-----------|-----------|-----------|-----------|-----------|
A#|--------8--|--------3--|--------5--|--------3--|--------1--|--------1--|-----0-----|
F#|-----5-----|-----4-----|-----2-----|-----0-----|-----2-----|-----2-----|--------5--|
C#|--7--------|--5--------|--3--------|--2--------|--3--------|--3--------|--5--------|
G#|-----------|-----------|-----------|-----------|-----------|-----------|-----------|
C#|-----------|-----------|-----------|-----------|-----------|-----------|-----------|

D#|-----------|-----------|--------------------|--------------------|
A#|--------1--|--------1--|-----0--------0-----|-----0--------0-----|
F#|-----2-----|-----2-----|--------5--------5--|--------5--------5--|
C#|--3--------|--3--------|--5--------5--------|--5--------5--------|
G#|-----------|-----------|--------------------|--------------------|
C#|-----------|-----------|--------------------|--------------------|

[Chorus] Guitar 2:
"Is It Just Me?"
D#|---------------------------------------------------------------------|
A#|---------------------------------------------------------------------|
F#|-------5-5-5-5-5-5-5--4-4-4-4-4-4-4--2-2-2-2-2-2-2-------------------|
C#|--5-5--5-5-5-5-5-5-5--5-5-5-5-5-5-5--2-2-2-2-2-2-2--2-2-2-2-2-2-2-2--|
G#|--5-5--3-3-3-3-3-3-3--2-2-2-2-2-2-2--0-0-0-0-0-0-0--2-2-2-2-2-2-2-2--|
C#|--5-5-----------------------------------------------2-2-2-2-2-2-2-2--|

D#|--------------------------------------------------------|
A#|--------------------------------------------------------|
F#|-----------------5-5-5-5-5-5-5--------------------------|
C#|-3-3-3-3-3-3-3---5-5-5-5-5-5-5--5-5-5-5-5-5-5--6-6-6-6--|
G#|-3-3-3-3-3-3-3---3-3-3-3-3-3-3--5-5-5-5-5-5-5--6-6-6-6--|
C#|-3-3-3-3-3-3-3------------------5-5-5-5-5-5-5--6-6-6-6--|

D#|----------------------------------------------------------------------------------------------------------|
A#|----------------------------------------------------------------------------------------------------------|
F#|---2-2-2-2-2-2-2-4-4-4-4-4-4-4--5-5-5-5-5-5-5---------------------------5-5-5-5-5-5-5---------------------|
C#|---2-2-2-2-2-2-2-5-5-5-5-5-5-5--5-5-5-5-5-5-5--2--2--5---3-3-3-3-3-3-3--5-5-5-5-5-5-5-5-5-5-5-5-5-5-5-5-5-|
G#|---0-0-0-0-0-0-0-2-2-2-2-2-2-2--3-3-3-3-3-3-3--2--2--5---3-3-3-3-3-3-3--3-3-3-3-3-3-3-5-5-5-5-5-5-5-5-5-5-|
C#|-----------------------------------------------2--2--5---3-3-3-3-3-3-3----------------5-5-5-5-5-5-5-5-5-5-|

[Main Riff] Guitar 1:(x2)
D#|--0---0---0---0---0--0--0--0---0--0----0---0----0--0--0--------|
A#|-13--13--12--12--10--8--8/10--10--5----5---3/5--5--5--3/5\3p0--|
F#|---------------------------------------------------------------| 
C#|---------------------------------------------------------------|
G#|---------------------------------------------------------------|
C#|---------------------------------------------------------------|

[Main Riff] Guitar 2: (x2)
D#|-----0--0--0--0----------------------------------|
A#|-----1--1--1--1----------------------------------|
F#|--2--2--2--2--2--------5--5--4/5--5----4/5\4-----|
C#|--2--2--2--2--2--2--3--5--5--x-x--x----x-x-x--5--|
G#|--0--0--0--0--0--2--3--3--3--2/3--3----2/3\2--5--|
C#|-----------------2--3-------------------------5--|

[Verse] Guitar 1: (x2)
"We All Worship Celebrities..."
D#|--------------|--------------|--------------|--------------|
A#|--6--6--6--6--|--8--8--8--8--|--5--5--5--5--|--5--5--5--5--|
F#|--5--5--5--5--|--5--5--5--5--|--5--5--5--5--|--5--5--5--5--|
C#|--------------|--------------|--------------|--------------|
G#|--------------|--------------|--------------|--------------|
C#|--------------|--------------|--------------|--------------|

[Verse] Guitar 2: (x2)
"We All Worship Celebrities..."
D#|------------------------------------------------------|
A#|------------------------------------------------------|
F#|-----------------------------5--5--5----5-------------|
C#|---3--3--3---3--5--5--5---5--5--5--5----5-------------|
G#|---3--3--3---3--5--5--5---5--3--3--3----3---2h3p2-----|
C#|---3--3--3---3--5--5--5---5------------------------5--|


[PreChorus] Guitar 1:
"You Don't Think About What You Say..."
D#|------------------------------|--------------------------|------------------------------|-----|
A#|------------------------------|--------------------------|------------------------------|-----|
F#|-10-10-10-10--12--12--12--12--|--9--9--7--7--5--5--5--5--|-10-10-10-10--12--12--12--12--|--5--|
C#|--x--x--x--x---x---x---x---x--|--x--x--x--x--x--x--x--x--|--x--x--x--x---x---x---x---x--|--x--|
G#|--8--8--8--8--10--10--10--10--|--7--7--5--5--3--3--3--3--|--8--8--8--8--10--10--10--10--|--3--|
C#|------------------------------|--------------------------|------------------------------|-----|


[PreChorus] Guitar 2:
"You Don't Think About What You Say..."
D#|----------------------------------------------------------------------------------------|
A#|----------------------------------------------------------------------------------------|
F#|----------------------------------------------5--5--5----3--3--3----2--2--2----2--2--2--|
C#|--3--3--3----3--3--3----5--5--5----5--5--5----5--5--5----3--3--3----2--2--2----2--2--2--|
G#|--3--3--3----3--3--3----5--5--5----5--5--5----3--3--3----1--1--1----0--0--0----0--0--0--|
C#|--3--3--3----3--3--3----5--5--5----5--5--5----------------------------------------------|


D#|--------------------------------------------|--------------------------|
A#|--------------------------------------------|--------------------------|
F#|--------------------------------------------|--------------------------|
C#|--3--3--3----3--3--3----5--5--5----5--5--5--|--2--2--2--2--2--2--2--2--|
G#|--3--3--3----3--3--3----5--5--5----5--5--5--|--0--0--0--0--0--0--0--0--|
C#|--3--3--3----3--3--3----5--5--5----5--5--5--|--------------------------|


[Chorus] Guitar 1: (x2)
"Is It Just Me?"
D#|-----------|-----------|-----------|-----------|-----------|-----------|-----------|
A#|--------8--|--------3--|--------5--|--------3--|--------1--|--------1--|-----0-----|
F#|-----5-----|-----4-----|-----2-----|-----0-----|-----2-----|-----2-----|--------5--|
C#|--7--------|--5--------|--3--------|--2--------|--3--------|--3--------|--5--------|
G#|-----------|-----------|-----------|-----------|-----------|-----------|-----------|
C#|-----------|-----------|-----------|-----------|-----------|-----------|-----------|

D#|-----------|-----------|--------------------|--------------------|
A#|--------1--|--------1--|-----0--------0-----|-----0--------0-----|
F#|-----2-----|-----2-----|--------5--------5--|--------5--------5--|
C#|--3--------|--3--------|--5--------5--------|--5--------5--------|
G#|-----------|-----------|--------------------|--------------------|
C#|-----------|-----------|--------------------|--------------------|

[Chorus] Guitar 2:
"Is It Just Me?"
D#|---------------------------------------------------------------------|
A#|---------------------------------------------------------------------|
F#|-------5-5-5-5-5-5-5--4-4-4-4-4-4-4--2-2-2-2-2-2-2-------------------|
C#|--5-5--5-5-5-5-5-5-5--5-5-5-5-5-5-5--2-2-2-2-2-2-2--2-2-2-2-2-2-2-2--|
G#|--5-5--3-3-3-3-3-3-3--2-2-2-2-2-2-2--0-0-0-0-0-0-0--2-2-2-2-2-2-2-2--|
C#|--5-5-----------------------------------------------2-2-2-2-2-2-2-2--|

D#|--------------------------------------------------------|
A#|--------------------------------------------------------|
F#|-----------------5-5-5-5-5-5-5--------------------------|
C#|-3-3-3-3-3-3-3---5-5-5-5-5-5-5--5-5-5-5-5-5-5--6-6-6-6--|
G#|-3-3-3-3-3-3-3---3-3-3-3-3-3-3--5-5-5-5-5-5-5--6-6-6-6--|
C#|-3-3-3-3-3-3-3------------------5-5-5-5-5-5-5--6-6-6-6--|

D#|----------------------------------------------------------------------------------------------------------|
A#|----------------------------------------------------------------------------------------------------------|
F#|---2-2-2-2-2-2-2-4-4-4-4-4-4-4--5-5-5-5-5-5-5---------------------------5-5-5-5-5-5-5---------------------|
C#|---2-2-2-2-2-2-2-5-5-5-5-5-5-5--5-5-5-5-5-5-5--2--2--5---3-3-3-3-3-3-3--5-5-5-5-5-5-5-5-5-5-5-5-5-5-5-5-5-|
G#|---0-0-0-0-0-0-0-2-2-2-2-2-2-2--3-3-3-3-3-3-3--2--2--5---3-3-3-3-3-3-3--3-3-3-3-3-3-3-5-5-5-5-5-5-5-5-5-5-|
C#|-----------------------------------------------2--2--5---3-3-3-3-3-3-3----------------5-5-5-5-5-5-5-5-5-5-|


[Bridge] Guitar 2:
D#|--------------------------|
A#|--------------------------|
F#|--------------------------|
C#|--------------------------|
G#|--------------------------|
C#|--7--7--7--7--7--7--7--7--|(x12)

D#|----------------------|----------------------|----------------------|----------------------|
A#|----------------------|----------------------|----------------------|----------------------|
F#|----------------------|----------------------|----------------------|----------------------|
C#|--7--7--7----7--7--7--|--2--2--2----2--2--2--|--3--3--3----3--3--3--|--5--5--5----5--5--5--|
G#|--7--7--7----7--7--7--|--2--2--2----2--2--2--|--3--3--3----3--3--3--|--5--5--5----5--5--5--|
C#|--7--7--7----7--7--7--|--2--2--2----2--2--2--|--3--3--3----3--3--3--|--5--5--5----5--5--5--|(x2)


[Bridge] Guitar 2: (x4)
"There's A Black Cat, Up In The Windows Of Parliment..."
D#|-----------|-----------|-----------|-----------|
A#|--------8--|--------3--|--------5--|--------3--|
F#|-----5-----|-----4-----|-----2-----|-----0-----|
C#|--7--------|--5--------|--3--------|--2--------|
G#|-----------|-----------|-----------|-----------|
C#|-----------|-----------|-----------|-----------|

[Main Riff] Guitar 1:(x4)
D#|--0---0---0---0---0--0--0--0---0--0----0---0----0--0--0--------|
A#|-13--13--12--12--10--8--8/10--10--5----5---3/5--5--5--3/5\3p0--|
F#|---------------------------------------------------------------| 
C#|---------------------------------------------------------------|
G#|---------------------------------------------------------------|
C#|---------------------------------------------------------------|

[Main Riff] Guitar 2: (x4)
D#|-----0--0--0--0----------------------------------|
A#|-----1--1--1--1----------------------------------|
F#|--2--2--2--2--2--------5--5--4/5--5----4/5\4-----|
C#|--2--2--2--2--2--2--3--5--5--x-x--x----x-x-x--5--|
G#|--0--0--0--0--0--2--3--3--3--2/3--3----2/3\2--5--|
C#|-----------------2--3-------------------------5--|

[Key Shift] Both Guitars
D#|-----------------------------|
A#|-----------------------------|
F#|--6--6--6--6--6--6--6--6--6--|
C#|--x--x--x--x--x--x--x--x--x--|
G#|--4--4--4--4--4--4--4--4--4--|
C#|-----------------------------|

[Key-Shift Chorus] Guitar 2:
"Is It Just Me?"
D#|---------------------------------------------------------------------|
A#|---------------------------------------------------------------------|
F#|-------7-7-7-7-7-7-7--6-6-6-6-6-6-6--4-4-4-4-4-4-4-------------------|
C#|--7-7--7-7-7-7-7-7-7--7-7-7-7-7-7-7--4-4-4-4-4-4-4--4-4-4-4-4-4-4-4--|
G#|--7-7--5-5-5-5-5-5-5--4-2-2-2-2-2-2--2-2-2-2-2-2-2--4-4-4-4-4-4-4-4--|
C#|--7-7-----------------------------------------------4-4-4-4-4-4-4-4--|

D#|--------------------------------------------------------|
A#|--------------------------------------------------------|
F#|-----------------7-7-7-7-7-7-7--------------------------|
C#|-5-5-5-5-5-5-5---7-7-7-7-7-7-7--7-7-7-7-7-7-7--8-8-8-8--|
G#|-5-5-5-5-5-5-5---5-5-5-5-5-5-5--7-7-7-7-7-7-7--8-8-8-8--|
C#|-5-5-5-5-5-5-5------------------7-7-7-7-7-7-7--8-8-8-8--|

D#|----------------------------------------------------------------------------------------------------------|
A#|----------------------------------------------------------------------------------------------------------|
F#|---4-4-4-4-4-4-4-6-6-6-6-6-6-6--7-7-7-7-7-7-7---------------------------7-7-7-7-7-7-----------------------|
C#|---4-4-4-4-4-4-4-7-7-7-7-7-7-7--7-7-7-7-7-7-7--4--4--7---5-5-5-5-5-5-5--7-7-7-7-7-7-7-7-7-7-7-7-7-7-7-7-7-|
G#|---2-2-2-2-2-2-2-4-4-4-4-4-4-4--5-5-5-5-5-5-5--4--4--7---5-5-5-5-5-5-5--5-5-5-5-5-5-5-7-7-7-7-7-7-7-7-7-7-|
C#|-----------------------------------------------4--4--7---5-5-5-5-5-5-5----------------7-7-7-7-7-7-7-7-7-7-|


D#|--------------------------|--------------------------|--------------------------|-----|
A#|--------------------------|--------------------------|--------------------------|-----|
F#|--------------------------|--------------------------|--------------------------|-----|
C#|--2--2--2--2--2--2--2--2--|--0--0--0--0--0--0--0--0--|--7--7--7--7--7--7--7--7--|--7--|
G#|--2--2--2--2--2--2--2--2--|--0--0--0--0--0--0--0--0--|--7--7--7--7--7--7--7--7--|--7--|
C#|--2--2--2--2--2--2--2--2--|--0--0--0--0--0--0--0--0--|--7--7--7--7--7--7--7--7--|--7--|


[Outro] Guitar 1:
D#|--------------------------------------------------------------------|
A#|--15--15--14--14--12--10--10--12--12--7--7--5h7--7--7--7--5h7p5-----|
F#|-----------------------------------------------------------------6--|
C#|--------------------------------------------------------------------|
G#|--------------------------------------------------------------------|
C#|--------------------------------------------------------------------|

D#|-----------------------------------------|
A#|--15--15--14--14--12--10--10--12--12--7--|
F#|-----------------------------------------|
C#|-----------------------------------------|
G#|-----------------------------------------|
C#|-----------------------------------------|

[Main Riff] Guitar 2: (x4)
D#|-----2--2--2--2----------------------------------|
A#|-----3--3--3--3----------------------------------|
F#|--4--4--4--4--4--------7--7--6/7--7----6/7\6-----|
C#|--4--4--4--4--4--4--5--7--7--x-x--x----x-x-x--7--|
G#|--2--2--2--2--2--4--5--5--5--4/5--5----4/5\4--7--|
C#|-----------------4--5-------------------------7--|

D#|-----2--2--2--2-----------|
A#|-----3--3--3--3-----------|
F#|--4--4--4--4--4--------7--|
C#|--4--4--4--4--4--4--5--7--|
G#|--2--2--2--2--2--4--5--5--|
C#|-----------------4--5-----|

____________________________________________________________________________________________________

                                       T03.   THE GRAND DELUSION
____________________________________________________________________________________________________

Tuning: Drop C# (C# G# C# F# A# D#)

[Opening] Guitar 2:
"I'm Coming To The Conclusion..."
D#|-----------------------------------------------------------------|
A#|--7--7--7----7--7--5--5--5--5------------------------------------|
F#|--7--7--7----7--7--6--6--6--6----7--7--7----7--7--7--7--9--9--9--|
C#|---------------------------------7--7--7----7--7--7--7--9--9--9--|
G#|-----------------------------------------------------------------|
C#|-----------------------------------------------------------------|

D#|-------------------------------------------------------|
A#|-------------------------------------------------------|
F#|--4--4--4----4--4--4--4----7--7--7----4--4--4----4--4--|
C#|--5--5--5----5--5--5--5----7--7--7----5--5--5----5--5--|
G#|-------------------------------------------------------|
C#|-------------------------------------------------------|


[Intro] Guitar 1
"Anyone Else But Me."
D#|-------------------------------|----------------------------------|
A#|-------------------------------|----------------------------------|
F#|-----------7--7--9--9--11--11--|-----------7--7--9--9--11---------|
C#|--9--9--9----------------------|--7--7--7------------------12p11--|
G#|-------------------------------|----------------------------------|
C#|-------------------------------|----------------------------------|

D#|-------------------------------|------------------------------|
A#|-------------------------------|------------------------------|
F#|-----------7--7--9--9--11--11--|-----------7--7--9--9--6h7p6--|
C#|--9--9--9----------------------|--7--7--7---------------------|
G#|-------------------------------|------------------------------|
C#|-------------------------------|------------------------------|


[Intro] Guitar 2
"Anyone Else But Me."
D#|------------------------------------------------------|
A#|------------------------------------------------------|
F#|--------------------------4--4--7--7------------------|
C#|--5--5--5----5--5--5--5---4--4--7--7---7--7--7--4--4--|
G#|--5--5--5----5--5--5--5---2--2--5--5---7--7--7--4--4--|
C#|--5--5--5----5--5--5--5----------------7--7--7--4--4--|(x2)

[Verse] Guitar 1
"This Straightjacket..."
D#|-----------|-----------------------------------|
A#|-----------|-----------------------------------|
F#|-----------|------------7--7--9--9--11---------|
C#|--9--9--9--|---7--7--7------------------12p11--|
G#|-----------|-----------------------------------|
C#|-----------|-----------------------------------|(x2)

[Verse] Guitar 2
"This Straightjacket..."
D#|-------|--------------------------------|
A#|-------|--------------------------------|
F#|-------|--7--7--7--7--7-----------------|
C#|--5-5--|--7--7--7--7--7--7--7--7--4--4--|
G#|--5-5--|--5--5--5--5--5--7--7--7--4--4--|
C#|--5-5--|-----------------7--7--7--4--4--|

[PreChorus] Guitar 1:
"And It's A Long Way Down..."
D#|----------------------------|--------------------------------------|
A#|----------------------------|--------------------------------------|
F#|--12--12--11-11-7--7--6--6--|--9--9--9--9--9--9--9--9--9--9--9--9--|
C#|---x---x--x--x--x--x--x--x--|--x--x--x--x--x--x--x--x--x--x--x--x--|
G#|--10--10--9--9--5--5--4--4--|--7--7--7--7--7--7--7--7--7--7--7--7--|
C#|----------------------------|--------------------------------------|

D#|----------------------------|------12------|
A#|----------------------------|--15------14--|
F#|--12--12--11-11-7--7--6--6--|--------------|
C#|---x---x--x--x--x--x--x--x--|--------------|
G#|--10--10--9--9--5--5--4--4--|--------------|
C#|----------------------------|--------------|

[PreChorus] Guitar 2:
"And It's A Long Way Down..."
D#|--------------------------|--------------------------------------------------|
A#|--------------------------|--------------------------------------------------|
F#|--------------------------|--------------------------------------------------|
C#|--2--2--4--4--5--5--0--0--|--7--7--7--7--7--7--7--7--7--7--7--7--7--7--7--7--|
G#|--2--2--4--4--5--5--0--0--|--7--7--7--7--7--7--7--7--7--7--7--7--7--7--7--7--|
C#|--2--2--4--4--5--5--0--0--|--7--7--7--7--7--7--7--7--7--7--7--7--7--7--7--7--|(x2)

[Chorus] Guitar 2:
"On My Head..."
D#|----------------------------------------------------------|
A#|----------------------------------------------------------|
F#|----------------------------------------------------------|
C#|--0--0--0----7--7--7--7--4--4--5--5--5----5--5--5--5--5/7-|
G#|--0--0--0----7--7--7--7--4--4--5--5--5----5--5--5--5--5/7-|
C#|--0--0--0----7--7--7--7--4--4--5--5--5----5--5--5--5--5/7-|(x2)

D#|--------------------------------------------------|----------------------------------------|
A#|--------------------------------------------------|----------------------------------------|
F#|--------------------------------------------------|----------------------------------------|
C#|--0--0--0--0--0--0--0--0--7--7--7--7--4--4--4--4--|--5--5--5--5--5--5--5--5--5--5--5--5/7--|
G#|--0--0--0--0--0--0--0--0--7--7--7--7--4--4--4--4--|--5--5--5--5--5--5--5--5--5--5--5--5/7--|
C#|--0--0--0--0--0--0--0--0--7--7--7--7--4--4--4--4--|--5--5--5--5--5--5--5--5--5--5--5--5/7--|

D#|--------------------------------------------|------------------------------------------|
A#|--------------------------------------------|------------------------------------------|
F#|--------------------------------------------|------------------------------------------|
C#|--2--2--2--2--2--2--2--2--2--2--2--2--4--4--|--5--5--5--5--5--5--5--5--7--7--7--7--7--7|
G#|--2--2--2--2--2--2--2--2--2--2--2--2--4--4--|--5--5--5--5--5--5--5--5--7--7--7--7--7--7|
C#|--2--2--2--2--2--2--2--2--2--2--2--2--4--4--|--5--5--5--5--5--5--5--5--7--7--7--7--7--7|

[Chorus] Guitar 1:
"On My Head..."
D#|--------------------------------------------------|--------------------------------------------------|
A#|--7--7--7--7--7--7--7--7--7--7--7--7--7--7--7--7--|--5--5--5--5--5--5--5--5--5--5--5--5--5--5--5--5--|
F#|--7--7--7--7--7--7--7--7--7--7--7--7--7--7--7--7--|--7--7--7--7--7--7--7--7--7--7--7--7--7--7--7--7--|
C#|--------------------------------------------------|--------------------------------------------------|
G#|--------------------------------------------------|--------------------------------------------------|
C#|--------------------------------------------------|--------------------------------------------------|(x6)

D#|--------------------------------------------------|--------------------------------------------------|
A#|--------------------------------------------------|--------------------------------------------------|
F#|--4--4--4--4--4--4--4--4--4--4--4--4--4--4--4--4--|--4--4--4--4--4--4--4--4--4--4--4--4--4--4--7--7--|
C#|--5--5--5--5--5--5--5--5--5--5--5--5--5--5--5--5--|--5--5--5--5--5--5--5--5--5--5--5--5--5--5--7--7--|
G#|--------------------------------------------------|--------------------------------------------------|
C#|--------------------------------------------------|--------------------------------------------------|

D#|--------------------------------------------------|--------------------------------------------------|
A#|--------------------------------------------------|--------------------------------------5--5--5--5--|
F#|--4--4--4--4--4--4--4--4--4--4--4--4--4--4--4--4--|--4--4--4--4--4--4--4--4--4--4--4--4--4--4--4--4--|
C#|--5--5--5--5--5--5--5--5--5--5--5--5--5--5--5--5--|--5--5--5--5--5--5--5--5--5--5--5--5--------------|
G#|--------------------------------------------------|--------------------------------------------------|
C#|--------------------------------------------------|--------------------------------------------------|

[Main Riff] Guitar 1
"Anyone Else But Me."
D#|-------------------------------|----------------------------------|
A#|-------------------------------|----------------------------------|
F#|-----------7--7--9--9--11--11--|-----------7--7--9--9--11---------|
C#|--9--9--9----------------------|--7--7--7------------------12p11--|
G#|-------------------------------|----------------------------------|
C#|-------------------------------|----------------------------------|

D#|-------------------------------|------------------------------|
A#|-------------------------------|------------------------------|
F#|-----------7--7--9--9--11--11--|-----------7--7--9--9--6h7p6--|
C#|--9--9--9----------------------|--7--7--7---------------------|
G#|-------------------------------|------------------------------|
C#|-------------------------------|------------------------------|


[Intro] Guitar 2
"Anyone Else But Me."
D#|------------------------------------------------------|
A#|------------------------------------------------------|
F#|--------------------------4--4--7--7------------------|
C#|--5--5--5----5--5--5--5---4--4--7--7---7--7--7--4--4--|
G#|--5--5--5----5--5--5--5---2--2--5--5---7--7--7--4--4--|
C#|--5--5--5----5--5--5--5----------------7--7--7--4--4--|(x2)

[Verse] Guitar 1
"This Stranger..."
D#|-----------|-----------------------------------|
A#|-----------|-----------------------------------|
F#|-----------|------------7--7--9--9--11---------|
C#|--9--9--9--|---7--7--7------------------12p11--|
G#|-----------|-----------------------------------|
C#|-----------|-----------------------------------|(x2)

[Verse] Guitar 2
"This Stranger..."
D#|-------|--------------------------------|
A#|-------|--------------------------------|
F#|-------|--7--7--7--7--7-----------------|
C#|--5-5--|--7--7--7--7--7--7--7--7--4--4--|
G#|--5-5--|--5--5--5--5--5--7--7--7--4--4--|
C#|--5-5--|-----------------7--7--7--4--4--|

[PreChorus] Guitar 1:
"And It's A Long Way Down..."
D#|----------------------------|--------------------------------------|
A#|----------------------------|--------------------------------------|
F#|--12--12--11-11-7--7--6--6--|--9--9--9--9--9--9--9--9--9--9--9--9--|
C#|---x---x--x--x--x--x--x--x--|--x--x--x--x--x--x--x--x--x--x--x--x--|
G#|--10--10--9--9--5--5--4--4--|--7--7--7--7--7--7--7--7--7--7--7--7--|
C#|----------------------------|--------------------------------------|

D#|----------------------------|------12------|
A#|----------------------------|--15------14--|
F#|--12--12--11-11-7--7--6--6--|--------------|
C#|---x---x--x--x--x--x--x--x--|--------------|
G#|--10--10--9--9--5--5--4--4--|--------------|
C#|----------------------------|--------------|

[PreChorus] Guitar 2:
"And It's A Long Way Down..."
D#|--------------------------|--------------------------------------------------|
A#|--------------------------|--------------------------------------------------|
F#|--------------------------|--------------------------------------------------|
C#|--2--2--4--4--5--5--0--0--|--7--7--7--7--7--7--7--7--7--7--7--7--7--7--7--7--|
G#|--2--2--4--4--5--5--0--0--|--7--7--7--7--7--7--7--7--7--7--7--7--7--7--7--7--|
C#|--2--2--4--4--5--5--0--0--|--7--7--7--7--7--7--7--7--7--7--7--7--7--7--7--7--|(x2)

[Chorus] Guitar 2:
"On My Head..."
D#|----------------------------------------------------------|
A#|----------------------------------------------------------|
F#|----------------------------------------------------------|
C#|--0--0--0----7--7--7--7--4--4--5--5--5----5--5--5--5--5/7-|
G#|--0--0--0----7--7--7--7--4--4--5--5--5----5--5--5--5--5/7-|
C#|--0--0--0----7--7--7--7--4--4--5--5--5----5--5--5--5--5/7-|(x2)

D#|--------------------------------------------------|----------------------------------------|
A#|--------------------------------------------------|----------------------------------------|
F#|--------------------------------------------------|----------------------------------------|
C#|--0--0--0--0--0--0--0--0--7--7--7--7--4--4--4--4--|--5--5--5--5--5--5--5--5--5--5--5--5/7--|
G#|--0--0--0--0--0--0--0--0--7--7--7--7--4--4--4--4--|--5--5--5--5--5--5--5--5--5--5--5--5/7--|
C#|--0--0--0--0--0--0--0--0--7--7--7--7--4--4--4--4--|--5--5--5--5--5--5--5--5--5--5--5--5/7--|

D#|--------------------------------------------|------------------------------------------|
A#|--------------------------------------------|------------------------------------------|
F#|--------------------------------------------|------------------------------------------|
C#|--2--2--2--2--2--2--2--2--2--2--2--2--4--4--|--5--5--5--5--5--5--5--5--7--7--7--7--7--7|
G#|--2--2--2--2--2--2--2--2--2--2--2--2--4--4--|--5--5--5--5--5--5--5--5--7--7--7--7--7--7|
C#|--2--2--2--2--2--2--2--2--2--2--2--2--4--4--|--5--5--5--5--5--5--5--5--7--7--7--7--7--7|

[Chorus] Guitar 1:
"On My Head..."
D#|--------------------------------------------------|--------------------------------------------------|
A#|--7--7--7--7--7--7--7--7--7--7--7--7--7--7--7--7--|--5--5--5--5--5--5--5--5--5--5--5--5--5--5--5--5--|
F#|--7--7--7--7--7--7--7--7--7--7--7--7--7--7--7--7--|--7--7--7--7--7--7--7--7--7--7--7--7--7--7--7--7--|
C#|--------------------------------------------------|--------------------------------------------------|
G#|--------------------------------------------------|--------------------------------------------------|
C#|--------------------------------------------------|--------------------------------------------------|(x6)

D#|--------------------------------------------------|--------------------------------------------------|
A#|--------------------------------------------------|--------------------------------------------------|
F#|--4--4--4--4--4--4--4--4--4--4--4--4--4--4--4--4--|--4--4--4--4--4--4--4--4--4--4--4--4--4--4--7--7--|
C#|--5--5--5--5--5--5--5--5--5--5--5--5--5--5--5--5--|--5--5--5--5--5--5--5--5--5--5--5--5--5--5--7--7--|
G#|--------------------------------------------------|--------------------------------------------------|
C#|--------------------------------------------------|--------------------------------------------------|

D#|--------------------------------------------------|--------------------------------------------------|
A#|--------------------------------------------------|--------------------------------------5--5--5--5--|
F#|--4--4--4--4--4--4--4--4--4--4--4--4--4--4--4--4--|--4--4--4--4--4--4--4--4--4--4--4--4--4--4--4--4--|
C#|--5--5--5--5--5--5--5--5--5--5--5--5--5--5--5--5--|--5--5--5--5--5--5--5--5--5--5--5--5--------------|
G#|--------------------------------------------------|--------------------------------------------------|
C#|--------------------------------------------------|--------------------------------------------------|

[PreBridge] Guitar 1:
D#|--------------|--------------|--------------|--------------|
A#|-----2-----3--|-----2-----3--|-----2-----3--|-----2-----3--|
F#|--4-----4-----|--2-----2-----|--------------|--0-----0-----|
C#|--------------|--------------|--2-----2-----|--------------|
G#|--------------|--------------|--------------|--------------|
C#|--------------|--------------|--------------|--------------|(x2)

[Bridge] Guitar 1:
"All Eyes On Me But That's Not Reality..."
D#|----------------------|----------------------|----------------------|------------------|
A#|------14------15--14--|------14------15--14--|------14------15--12--|------14------15--|
F#|--16------16----------|--14------14----------|----------------------|--12------12------|
C#|----------------------|----------------------|--14------14----------|------------------|
G#|----------------------|----------------------|----------------------|------------------|
C#|----------------------|----------------------|----------------------|------------------|(x2)

D#|--------------14------|----------------------|----------------------|------------------|
A#|------15----------14--|------14------15--14--|------14------15--12--|------14------15--|
F#|--16------16----------|--14------14----------|----------------------|--12------12------|
C#|----------------------|----------------------|--14------14----------|------------------|
G#|----------------------|----------------------|----------------------|------------------|
C#|----------------------|----------------------|----------------------|------------------|

D#|--------------14------|----------------------|----------------------|----------------------------|
A#|------15----------14--|------14------15--14--|------14------15--12--|--12/14--14--14--14/15--15--|
F#|--16------16----------|--14------14----------|----------------------|----------------------------|
C#|----------------------|----------------------|--14------14----------|----------------------------|
G#|----------------------|----------------------|----------------------|----------------------------|
C#|----------------------|----------------------|----------------------|----------------------------|

[Bridge] Guitar 2:
"All Eyes On Me But That's Not Reality..."
D#|-------------------------------------|------------------------------------|
A#|-------------------------------------|------------------------------------|
F#|-------------------------------------|------------------------------------|
C#|--9--9--9--9--9--9----7--7--7--7--7--|--2--2--2--2--2--2----5--5--5--5\4--|
G#|--9--9--9--9--9--9----7--7--7--7--7--|--2--2--2--2--2--2----5--5--5--5\4--|
C#|--9--9--9--9--9--9----7--7--7--7--7--|--2--2--2--2--2--2----5--5--5--5\4--|

[Main Riff] Guitar 1
"Holding It All In"
D#|-------------------------------|----------------------------------|
A#|-------------------------------|----------------------------------|
F#|-----------7--7--9--9--11--11--|-----------7--7--9--9--11---------|
C#|--9--9--9----------------------|--7--7--7------------------12p11--|
G#|-------------------------------|----------------------------------|
C#|-------------------------------|----------------------------------|

D#|-------------------------------|------------------------------|
A#|-------------------------------|------------------------------|
F#|-----------7--7--9--9--11--11--|-----------7--7--9--9--6h7p6--|
C#|--9--9--9----------------------|--7--7--7---------------------|
G#|-------------------------------|------------------------------|
C#|-------------------------------|------------------------------|


[Main Riff] Guitar 2
"Holding It All In"
D#|--------|-------------------------------|--------|-------------------------------------------------|
A#|--------|-------------------------------|--------|-------------------------------------------------|
A#|--------|--4--4-------------------------|--------|--4--4--7--7--7--7--7--7--7--7-------------------|
C#|--5--5--|--4--4--0--0----7--7--7--4--4--|--5--5--|--4--4--7--7--7--7--7--7--7--7--7--7--7--7--7--7-|
G#|--5--5--|--2--2--0--0----7--7--7--4--4--|--5--5--|--2--2--5--5--5--5--5--5--5--5--7--7--7--7--7--7-|
C#|--5--5--|--------0--0----7--7--7--4--4--|--5--5--|--------------------------------7--7--7--7--7--7-|(x2)


[Chorus] Guitar 2:
"On My Head..."
D#|--------------------------------------------------|----------------------------------------|
A#|--------------------------------------------------|----------------------------------------|
F#|--------------------------------------------------|----------------------------------------|
C#|--0--0--0--0--0--0--0--0--7--7--7--7--4--4--4--4--|--5--5--5--5--5--5--5--5--5--5--5--5/7--|
G#|--0--0--0--0--0--0--0--0--7--7--7--7--4--4--4--4--|--5--5--5--5--5--5--5--5--5--5--5--5/7--|
C#|--0--0--0--0--0--0--0--0--7--7--7--7--4--4--4--4--|--5--5--5--5--5--5--5--5--5--5--5--5/7--|(x2)

D#|-----------------------------------------------------------|
A#|-----------------------------------------------------------|
F#|-----------------------------------------------------------|
C#|--0--0--0----7--7--7--7--4--4--5--5--5----5--5--5--5--5/7--|
G#|--0--0--0----7--7--7--7--4--4--5--5--5----5--5--5--5--5/7--|
C#|--0--0--0----7--7--7--7--4--4--5--5--5----5--5--5--5--5/7--|

D#|----------------------------|--------------------------------------------|
A#|----------------------------|--------------------------------------------|
F#|----------------------------|--------------------------------------------|
C#|--2--2--2----2--2--2--4--4--|--5--5--5--5--5--5--5--5--7--7--7--7--7--7--|
G#|--2--2--2----2--2--2--4--4--|--5--5--5--5--5--5--5--5--7--7--7--7--7--7--|
C#|--2--2--2----2--2--2--4--4--|--5--5--5--5--5--5--5--5--7--7--7--7--7--7--|

D#|--------------------------------------------|-----------------------------|
A#|--------------------------------------------|-----------------------------|
F#|--------------------------------------------|-----------------------------|
C#|--2--2--2--2--2--2--2--2--2--2--2--2--4--4--|--5--5--5--5--5--5--5--5--7--|
G#|--2--2--2--2--2--2--2--2--2--2--2--2--4--4--|--5--5--5--5--5--5--5--5--7--|
C#|--2--2--2--2--2--2--2--2--2--2--2--2--4--4--|--5--5--5--5--5--5--5--5--7--|

[Final Chorus] Guitar 1:
"I'm Coming To The Conclusion..."
D#|--10--10--12--14--12--10--9--9h10--|--10--10--12--14--12--15--14--12\10--|
A#|-----------------------------------|-------------------------------------|
F#|-----------------------------------|-------------------------------------|
C#|-----------------------------------|-------------------------------------|
C#|-----------------------------------|-------------------------------------|
C#|-----------------------------------|-------------------------------------|

D#|--10--10--9--7--9--10--10--10p9--|--10--10--12--14--12--15\14--14--15/17--|
A#|---------------------------------|----------------------------------------|
F#|---------------------------------|----------------------------------------|
C#|---------------------------------|----------------------------------------|
C#|---------------------------------|----------------------------------------|
C#|---------------------------------|----------------------------------------|

D#|--17--17--15--14--12--15--14--12/10--|--10--10--12--14--15--22--|
A#|-------------------------------------|--------------------------|
F#|-------------------------------------|--------------------------|
C#|-------------------------------------|--------------------------|
C#|-------------------------------------|--------------------------|
C#|-------------------------------------|--------------------------|


[Main Riff] Guitar 1
"Anyone Else But Me"
D#|-------------------------------|----------------------------------|
A#|-------------------------------|----------------------------------|
F#|-----------7--7--9--9--11--11--|-----------7--7--9--9--11---------|
C#|--9--9--9----------------------|--7--7--7------------------12p11--|
G#|-------------------------------|----------------------------------|
C#|-------------------------------|----------------------------------|

D#|-------------------------------|------------------------------------|
A#|-------------------------------|------------------------------------|
F#|-----------7--7--9--9--11--11--|-----------7--7--9--9--6h7p6--------|
C#|--9--9--9----------------------|--7--7--7---------------------9--9--|
G#|-------------------------------|------------------------------------|
C#|-------------------------------|------------------------------------|

[Main Riff] Guitar 2
"Anyone Else But Me"
D#|--------|-------------------------------|--------|-------------------------------------------------|
A#|--------|-------------------------------|--------|-------------------------------------------------|
A#|--------|--4--4-------------------------|--------|--4--4--7--7--7--7--7--7--7--7-------------------|
C#|--5--5--|--4--4--0--0----7--7--7--4--4--|--5--5--|--4--4--7--7--7--7--7--7--7--7--7--7--7--7--7--7-|
G#|--5--5--|--2--2--0--0----7--7--7--4--4--|--5--5--|--2--2--5--5--5--5--5--5--5--5--7--7--7--7--7--7-|
C#|--5--5--|--------0--0----7--7--7--4--4--|--5--5--|--------------------------------7--7--7--7--7--7-|(x2)

[End-on] Guitar 2
D#|--------|
A#|--------|
F#|--------|
C#|--5--5--|
G#|--5--5--|
C#|--5--5--|

____________________________________________________________________________________________________

                                          T04.   PARACHUTE
____________________________________________________________________________________________________


Tuning: Standard (E A D G B E

[Intro/Verse] Guitar 1
"It's Another Day, Wanna Get Away..."
e|-------------------|
B|-------------------|
G|----------4--4--4--|
D|--3/4--4-----------|
A|-------------------|
E|-------------------|(x12)

[Intro/Verse] Guitar 2 (x3)
"It's Another Day, Wanna Get Away..."
e|--------------------------|-----------------------------|
B|--------------------------|-----------------------------|
G|--4--4--4--4--4--4--4--4--|--4--4--4--4--4--4--4--------|
D|--4--4--4--4--4--4--4--4--|--4--4--4--4--4--4--4--4--4--|
A|--2--2--2--2--2--2--2--2--|--2--2--2--2--2--2--2--4--4--|
E|--------------------------|-----------------------2--2--|

e|-----------------------------|-----------------------------|
B|-----------------------------|-----------------------------|
G|-----------------------------|-----------------------------|
D|--2--2--2--2--2--2--2--2--2--|--2--2--2--2--2--2--2--2--2--|
A|--2--2--2--2--2--2--2--2--2--|--2--2--2--2--2--2--2--2--2--|
E|--0--0--0--0--0--0--0--0--0--|--0--0--0--0--0--0--0--0--0--|

[PreChorus] Guitar 1:
"Cause The Rain Is So Terribly Dull.."
e|--------0--|--------0--|--------0--|--------|
B|-----4-----|-----4-----|-----4-----|--------|
G|--4--------|--4--------|--4--------|-----4--|
D|-----------|-----------|-----------|--4-----|
A|-----------|-----------|-----------|--------|
E|-----------|-----------|-----------|--------|

e|--------0--|--------0--|--------0--|--------0--|
B|-----4-----|-----4-----|-----4-----|-----4-----|
G|--4--------|--4--------|--4--------|--4--------|
D|-----------|-----------|-----------|-----------|
A|-----------|-----------|-----------|-----------|
E|-----------|-----------|-----------|-----------|

e|--------0--|--------0--|--------0--|--------|
B|-----4-----|-----4-----|-----4-----|--------|
G|--4--------|--4--------|--4--------|-----4--|
D|-----------|-----------|-----------|--4-----|
A|-----------|-----------|-----------|--------|
E|-----------|-----------|-----------|--------|

e|--------0--|--------0--|--------0--|--3--|
B|-----4-----|-----4-----|-----4-----|--4--|
G|--4--------|--4--------|--4--------|--4--|
D|-----------|-----------|-----------|-----|
A|-----------|-----------|-----------|-----|
E|-----------|-----------|-----------|-----|

[PreChorus] Guitar 2:
"Cause The Rain Is So Terribly Dull.."
e|-----------------|-----------------|-----------------|-----------------|
B|-----------------|-----------------|-----------------|-----------------|
G|--6--6--6--6--6--|--6--6--6--6--4--|-----------------|-----------------|
D|--6--6--6--6--6--|--6--6--6--6--4--|--2--2--2--2--2--|--2--2--2--2--2--|
A|--4--4--4--4--4--|--4--4--4--4--6--|--2--2--2--2--2--|--2--2--2--2--2--|
E|-----------------|-----------------|--0--0--0--0--0--|--0--0--0--0--0--|(x2)


[Chorus] Guitar 1: (x2)
"I Want To Break out And Get Away..."
e|------------------------------------------------------------------|
B|--16--16--16--14--16--16--14--16--16--14--16--16--16--16--16--16--|
G|--16--16--16--16--16--16--16--16--16--16--16--16--16--16--16--16--|
D|------------------------------------------------------------------|
A|------------------------------------------------------------------|
E|------------------------------------------------------------------|(x2)


e|------------------------------------------------------------------|
B|--11--11--11---9--11--11---9--11--11---9--11--11--11--11--11--11--|
G|--11--11--11--11--11--11--11--11--11--11--11--11--11--11--11--11--|
D|------------------------------------------------------------------|
A|------------------------------------------------------------------|
E|------------------------------------------------------------------|


e|---------------------------------------------------------------------|
B|--12--12--x--x--11/12--12--x--x--11/12--12--x--x--11/12--12--12--12--|
G|--11--11--x--x--11-----11--x--x--11-----11--x--x--11-----11--12--12--|
D|---------------------------------------------------------------------|
A|---------------------------------------------------------------------|
E|---------------------------------------------------------------------|

[Chorus] Guitar 2: (x2)
"I Want To Break out And Get Away..."
e|--------------------------|--------------------------|--------------------------|--------------------------|
B|--------------------------|--------------------------|--------------------------|--------------------------|
G|--4--4--4--4--4--4--4--4--|--4--4--4--4--4--4--8--8--|--------------------------|--------------------------|
D|--4--4--4--4--4--4--4--4--|--4--4--4--4--4--4--8--8--|--6--6--6--6--6--6--6--6--|--6--6--6--6--6--6--6--6--|
A|--2--2--2--2--2--2--2--2--|--2--2--2--2--2--2--6--6--|--6--6--6--6--6--6--6--6--|--6--6--6--6--6--6--6--6--|
E|--------------------------|--------------------------|--4--4--4--4--4--4--4--4--|--4--4--4--4--4--4--4--4--|

e|--------------------------|--------------------------|--------------------------|--------------------------|
B|--------------------------|--------------------------|--------------------------|--------------------------|
G|--------------------------|--------------------------|--------------------------|--------------------------|
D|--4--4--4--4--4--4--4--4--|--4--4--4--4--4--4--4--4--|--2--2--x-x-x-2--2--x-x-x-|--2--2--x-x-x-2--2--5--5--|
A|--4--4--4--4--4--4--4--4--|--4--4--4--4--4--4--4--4--|--2--2--x-x-x-2--2--x-x-x-|--2--2--x-x-x-2--2--5--5--|
E|--2--2--2--2--2--2--2--2--|--2--2--2--2--2--2--2--2--|--0--0--x-x-x-0--0--x-x-x-|--0--0--x-x-x-0--0--3--3--|


[Intro/Verse] Guitar 1
"I'm Done With Small Town Politcs..."
e|-------------------|
B|-------------------|
G|----------4--4--4--|
D|--3/4--4-----------|
A|-------------------|
E|-------------------|(x7)

[Intro/Verse] Guitar 2 (x3)
"I'm Done With Small Town Politcs..."
e|--------------------------|-----------------------------|
B|--------------------------|-----------------------------|
G|--4--4--4--4--4--4--4--4--|--4--4--4--4--4--4--4--------|
D|--4--4--4--4--4--4--4--4--|--4--4--4--4--4--4--4--4--4--|
A|--2--2--2--2--2--2--2--2--|--2--2--2--2--2--2--2--4--4--|
E|--------------------------|-----------------------2--2--|

e|-----------------------------|-----------------------------|
B|-----------------------------|-----------------------------|
G|-----------------------------|-----------------------------|
D|--2--2--2--2--2--2--2--2--2--|--2--2--2--2--2--2--2--2--2--|
A|--2--2--2--2--2--2--2--2--2--|--2--2--2--2--2--2--2--2--2--|
E|--0--0--0--0--0--0--0--0--0--|--0--0--0--0--0--0--0--0--0--|

[PreChorus] Guitar 1:
"Cause Baby, If You Like, I'll Take You There..."
e|--------0--|--------0--|--------0--|--------|
B|-----4-----|-----4-----|-----4-----|--------|
G|--4--------|--4--------|--4--------|-----4--|
D|-----------|-----------|-----------|--4-----|
A|-----------|-----------|-----------|--------|
E|-----------|-----------|-----------|--------|

e|--------0--|--------0--|--------0--|--------0--|
B|-----4-----|-----4-----|-----4-----|-----4-----|
G|--4--------|--4--------|--4--------|--4--------|
D|-----------|-----------|-----------|-----------|
A|-----------|-----------|-----------|-----------|
E|-----------|-----------|-----------|-----------|

e|--------0--|--------0--|--------0--|--------|
B|-----4-----|-----4-----|-----4-----|--------|
G|--4--------|--4--------|--4--------|-----4--|
D|-----------|-----------|-----------|--4-----|
A|-----------|-----------|-----------|--------|
E|-----------|-----------|-----------|--------|

e|--------0--|--------0--|--------0--|--3--|
B|-----4-----|-----4-----|-----4-----|--4--|
G|--4--------|--4--------|--4--------|--4--|
D|-----------|-----------|-----------|-----|
A|-----------|-----------|-----------|-----|
E|-----------|-----------|-----------|-----|

[PreChorus] Guitar 2:
"Cause Baby, If You Like, I'll Take You There..."
e|-----------------|-----------------|-----------------|-----------------|
B|-----------------|-----------------|-----------------|-----------------|
G|--6--6--6--6--6--|--6--6--6--6--4--|-----------------|-----------------|
D|--6--6--6--6--6--|--6--6--6--6--4--|--2--2--2--2--2--|--2--2--2--2--2--|
A|--4--4--4--4--4--|--4--4--4--4--6--|--2--2--2--2--2--|--2--2--2--2--2--|
E|-----------------|-----------------|--0--0--0--0--0--|--0--0--0--0--0--|(x2)

[Chorus] Guitar 1: (x2)
"I Want To Break out And Get Away..."
e|------------------------------------------------------------------|
B|--16--16--16--14--16--16--14--16--16--14--16--16--16--16--16--16--|
G|--16--16--16--16--16--16--16--16--16--16--16--16--16--16--16--16--|
D|------------------------------------------------------------------|
A|------------------------------------------------------------------|
E|------------------------------------------------------------------|(x2)


e|------------------------------------------------------------------|
B|--11--11--11---9--11--11---9--11--11---9--11--11--11--11--11--11--|
G|--11--11--11--11--11--11--11--11--11--11--11--11--11--11--11--11--|
D|------------------------------------------------------------------|
A|------------------------------------------------------------------|
E|------------------------------------------------------------------|


e|---------------------------------------------------------------------|
B|--12--12--x--x--11/12--12--x--x--11/12--12--x--x--11/12--12--12--12--|
G|--11--11--x--x--11-----11--x--x--11-----11--x--x--11-----11--12--12--|
D|---------------------------------------------------------------------|
A|---------------------------------------------------------------------|
E|---------------------------------------------------------------------|

[Chorus] Guitar 2: (x2)
"I Want To Break out And Get Away..."
e|--------------------------|--------------------------|--------------------------|--------------------------|
B|--------------------------|--------------------------|--------------------------|--------------------------|
G|--4--4--4--4--4--4--4--4--|--4--4--4--4--4--4--8--8--|--------------------------|--------------------------|
D|--4--4--4--4--4--4--4--4--|--4--4--4--4--4--4--8--8--|--6--6--6--6--6--6--6--6--|--6--6--6--6--6--6--6--6--|
A|--2--2--2--2--2--2--2--2--|--2--2--2--2--2--2--6--6--|--6--6--6--6--6--6--6--6--|--6--6--6--6--6--6--6--6--|
E|--------------------------|--------------------------|--4--4--4--4--4--4--4--4--|--4--4--4--4--4--4--4--4--|

e|--------------------------|--------------------------|--------------------------|--------------------------|
B|--------------------------|--------------------------|--------------------------|--------------------------|
G|--------------------------|--------------------------|--------------------------|--------------------------|
D|--4--4--4--4--4--4--4--4--|--4--4--4--4--4--4--4--4--|--2--2--x-x-x-2--2--x-x-x-|--2--2--x-x-x-2--2--5--5--|
A|--4--4--4--4--4--4--4--4--|--4--4--4--4--4--4--4--4--|--2--2--x-x-x-2--2--x-x-x-|--2--2--x-x-x-2--2--5--5--|
E|--2--2--2--2--2--2--2--2--|--2--2--2--2--2--2--2--2--|--0--0--x-x-x-0--0--x-x-x-|--0--0--x-x-x-0--0--3--3--|


[Bridge] Guitar 2:
"We Don't Need A God To Make A Leap Of Faith..."
e|--------------------------------------------------|--------------------------------------------------|
B|--------------------------------------------------|--------------------------------------------------|
G|--------------------------------------------------|--4--4--4--4--4--4--4--4--4--4--4--4--4--4--4--4--|
D|--6--6--6--6--6--6--6--6--6--6--6--6--6--6--6--6--|--4--4--4--4--4--4--4--4--4--4--4--4--4--4--4--4--|
A|--6--6--6--6--6--6--6--6--6--6--6--6--6--6--6--6--|--2--2--2--2--2--2--2--2--2--2--2--2--2--2--2--2--|
E|--4--4--4--4--4--4--4--4--4--4--4--4--4--4--4--4--|--------------------------------------------------|

e|--------------------------------------------------|--------------------------------------------------|
B|--------------------------------------------------|--------------------------------------------------|
G|--------------------------------------------------|--------------------------------------------------|
D|--4--4--4--4--4--4--4--4--4--4--4--4--4--4--4--4--|--2--2--2--2--2--2--2--2--2--2--2--2--2--2--2--2--|
A|--4--4--4--4--4--4--4--4--4--4--4--4--4--4--4--4--|--2--2--2--2--2--2--2--2--2--2--2--2--2--2--2--2--|
E|--2--2--2--2--2--2--2--2--2--2--2--2--2--2--2--2--|--0--0--0--0--0--0--0--0--0--0--0--0--0--0--0--0--|

[Bridge] Guitar 1:
"We Don't Need A God To Make A Leap Of Faith..."
e|--------------------------------------------------|--------------------------------------------------|
B|--------------------------------------------------|--------------------------------------------------|
G|--8--8--8--8--8--8--8--8--8--8--8--8--8--8--8--8--|--16-16-16-16-16-16-16-16-16-16-16-16-16-16-16-16-|
D|--x--x--x--x--x--x--x--x--x--x--x--x--x--x--x--x--|---x--x--x--x--x--x--x--x--x--x--x--x--x--x--x--x-|
A|--6--6--6--6--6--6--6--6--6--6--6--6--6--6--6--6--|--14-14-14-14-14-14-14-14-14-14-14-14-14-14-14-14-|
E|--------------------------------------------------|--------------------------------------------------|

e|--------------------------------------------------|--------------------------------------------------|
B|--------------------------------------------------|--------------------------------------------------|
G|--11-11-11-11-11-11-11-11-11-11-11-11-11-11-11-11-|--16-16-16-16-16-16-16-16-16-16-16-16-16-16-16-16-|
D|--x--x--x--x--x--x--x--x--x--x--x--x--x--x--x--x--|---x--x--x--x--x--x--x--x--x--x--x--x--x--x--x--x-|
A|--9--9--9--9--9--9--9--9--9--9--9--9--9--9--9--9--|--14-14-14-14-14-14-14-14-14-14-14-14-14-14-14-14-|
E|--------------------------------------------------|--------------------------------------------------|


[Chorus] Guitar 1: (x2)
"I Want To Break out And Get Away..."
e|--------|
B|-----0--|
G|--3-----|
D|--------|
A|--------|
E|--------|(x12)

e|--------0--|--------0--|--------0--|--3--|
B|-----4-----|-----4-----|-----4-----|--4--|
G|--4--------|--4--------|--4--------|--4--|
D|-----------|-----------|-----------|-----|
A|-----------|-----------|-----------|-----|
E|-----------|-----------|-----------|-----|

[Chorus] Guitar 1: (x2)
"I Want To Break out And Get Away..."
e|------------------------------------------------------------------|
B|--16--16--16--14--16--16--14--16--16--14--16--16--16--16--16--16--|
G|--16--16--16--16--16--16--16--16--16--16--16--16--16--16--16--16--|
D|------------------------------------------------------------------|
A|------------------------------------------------------------------|
E|------------------------------------------------------------------|(x2)


e|------------------------------------------------------------------|
B|--11--11--11---9--11--11---9--11--11---9--11--11--11--11--11--11--|
G|--11--11--11--11--11--11--11--11--11--11--11--11--11--11--11--11--|
D|------------------------------------------------------------------|
A|------------------------------------------------------------------|
E|------------------------------------------------------------------|


e|---------------------------------------------------------------------|
B|--12--12--x--x--11/12--12--x--x--11/12--12--x--x--11/12--12--12--12--|
G|--11--11--x--x--11-----11--x--x--11-----11--x--x--11-----11--12--12--|
D|---------------------------------------------------------------------|
A|---------------------------------------------------------------------|
E|---------------------------------------------------------------------|

[Chorus Solo] Guitar 1: (x2)
"I Want To Break out And Get Away..."
e|----------14-------------14-------------14-------------14/16\14--11--|
B|---11/12------12--11/12------12--11/12------12--11/12----------------|
G|---------------------------------------------------------------------|
D|---------------------------------------------------------------------|
A|---------------------------------------------------------------------|
E|---------------------------------------------------------------------|

e|----------14-------------14-------------14-------------14----------------|
B|---11/12------12--11/12------12--11/12------12--11/12--------------------|
G|-----------------------------------------------------------11--8---------|
D|------------------------------------------------------------------11--9--|
A|-------------------------------------------------------------------------|
E|-------------------------------------------------------------------------|


e|------------------------|--------------------------------14---------14---------14---------14/16\14--|
B|------------------------|---------------------12--14h16------14h16------14h16------14h16------------|
G|------------------------|-------------11--13--------------------------------------------------------|
D|--11--9--11--13--11--9--|--11--9--11----------------------------------------------------------------|
A|------------------------|---------------------------------------------------------------------------|
E|------------------------|---------------------------------------------------------------------------|

e|-----------------------------|
B|--16~16~16~16~--16--14--12\--|
G|----------------16--16--11\--|
D|-----------------------------|
A|-----------------------------|
E|-----------------------------|

[Chorus] Guitar 2: (x4)
"I Want To Break out And Get Away..."
e|--------------------------|--------------------------|--------------------------|--------------------------|
B|--------------------------|--------------------------|--------------------------|--------------------------|
G|--4--4--4--4--4--4--4--4--|--4--4--4--4--4--4--8--8--|--------------------------|--------------------------|
D|--4--4--4--4--4--4--4--4--|--4--4--4--4--4--4--8--8--|--6--6--6--6--6--6--6--6--|--6--6--6--6--6--6--6--6--|
A|--2--2--2--2--2--2--2--2--|--2--2--2--2--2--2--6--6--|--6--6--6--6--6--6--6--6--|--6--6--6--6--6--6--6--6--|
E|--------------------------|--------------------------|--4--4--4--4--4--4--4--4--|--4--4--4--4--4--4--4--4--|

e|--------------------------|--------------------------|--------------------------|--------------------------|
B|--------------------------|--------------------------|--------------------------|--------------------------|
G|--------------------------|--------------------------|--------------------------|--------------------------|
D|--4--4--4--4--4--4--4--4--|--4--4--4--4--4--4--4--4--|--2--2--x-x-x-2--2--x-x-x-|--2--2--x-x-x-2--2--5--5--|
A|--4--4--4--4--4--4--4--4--|--4--4--4--4--4--4--4--4--|--2--2--x-x-x-2--2--x-x-x-|--2--2--x-x-x-2--2--5--5--|
E|--2--2--2--2--2--2--2--2--|--2--2--2--2--2--2--2--2--|--0--0--x-x-x-0--0--x-x-x-|--0--0--x-x-x-0--0--3--3--|


____________________________________________________________________________________________________

                                            T05.   IN BLOOM
____________________________________________________________________________________________________


Tuning: Drop C (C G C F A D)

[Opening] Guitar 1
D|--------------------|
A|--------------------|
F|--------6b7r6--4\2--|
C|-----7--------------|
G|--5-----------------|
C|--------------------|

[Intro/Verse] Guitar 1: (x3)
"Sometimes At Night I Let It Get To Me..."
D|--------------|----------------------|--------------|--------0--------|
A|-----------0--|--------0-------0-----|-----------0--|-----------0-----|
F|-----6--------|-----6-------------6--|-----6--------|-----6--------6--|
C|--7-----7-----|--7----------7--------|--7-----7-----|--7--------------|
G|--------------|----------------------|--------------|-----------------|
C|--------------|----------------------|--------------|-----------------|

D|--------------|----------------------|--------------|--------0--------|
A|-----------0--|--------0----------0--|-----------0--|-----------0-----|
F|-----6--------|-----6----------6-----|-----6--------|-----6--------6--|
C|--7-----7-----|--7----------7--------|--7-----7-----|--7--------------|
G|--------------|----------------------|--------------|-----------------|
C|--------------|----------------------|--------------|-----------------|


[Intro/Verse] Guitar 2:
"Sometimes At Night I Let It Get To Me..."
D|-----|-----|-----|--------|
A|-----|-----|-----|--------|
F|--7--|--7--|--2--|--4--6--|
C|--x--|--x--|--2--|--x--x--|
G|--5--|--5--|--0--|--2--4--|
C|-----|-----|-----|--------|

[PreChorus] Guitar 2
"No Sometimes That Is Not Enough..."
D|-------------------------|-------------------------|-------------------------|-------------------------|
A|-------------------------|-------------------------|-------------------------|-------------------------|
F|-14-14-14-14-14-14-14-14-|-14-14-14-14-14-14-14-14-|-14-14-14-14-14-14-14-14-|-14-14-14-14-14/16-16-16-|
C|--x--x--x--x--x--x--x--x-|--x--x--x--x--x--x--x--x-|--x--x--x--x--x--x--x--x-|--x--x--x--x--x--x--x--x-|
G|-12-12-12-12-12-12-12-12-|-12-12-12-12-12-12-12-12-|-12-12-12-12-12-12-12-12-|-12-12-12-12-12/14-14-14-|
C|-------------------------|-------------------------|-------------------------|-------------------------|

D|-------------------------|-------------------------|-------------------------|-------------------------|
A|-------------------------|-------------------------|-------------------------|-------------------------|
F|-16\14-14-14-14-14-14-14-|-14-14-14-14-14-14-14-14-|-14-14-14-14-14-14-14-14-|-14-14-14-14-14/18-18-18-|
C|--x--x--x--x--x--x--x--x-|--x--x--x--x--x--x--x--x-|--x--x--x--x--x--x--x--x-|--x--x--x--x--x--x--x--x-|
G|-14\12-12-12-12-12-12-12-|-12-12-12-12-12-12-12-12-|-12-12-12-12-12-12-12-12-|-12-12-12-12-12/16-16-16-|
C|-------------------------|-------------------------|-------------------------|-------------------------|

[Chorus] Guitar 1: (x2)
"And Stop Calling Me Out..."
D|----------------------------------------------|----------------------------------------------|
A|----------------------------------------------|----------------------------------------------|
F|--14--14--14--14--14--14--14--14--14--14--14--|--14--14--14--14--14--14--14--14--14--14--14--|
C|---x---x---x---x---x---x---x---x---x---x---x--|---x---x---x---x---x---x---x---x---x---x---x--|
G|--12--12--12--12--12--12--12--12--12--12--12--|--12--12--12--12--12--12--12--12--12--12--12--|
C|----------------------------------------------|----------------------------------------------|

D|----------------------------------------------|-------------------------------------------------|
A|----------------------------------------------|-------------------------------------------------|
F|--14--14--14--14--14--14--14--14--14--14--14--|--14/16--16--16--16--16--16--16--16--16--16--16--|
C|---x---x---x---x---x---x---x---x---x---x---x--|---x-x----x---x---x---x---x---x---x---x---x---x--|
G|--12--12--12--12--12--12--12--12--12--12--12--|--12/14--14--14--14--14--14--14--14--14--14--14--|
C|----------------------------------------------|-------------------------------------------------|

[Chorus] Guitar 2: (x2)
"And Stop Calling Me Out..."
D|--------------------------------|--------------------------------|
A|--------------------------------|--------------------------------|
F|--7--7--7--7--7--7--7--7--7--7--|--7--7--7--7--7--7--7--7--7--7--|
C|--7--7--7--7--7--7--7--7--7--7--|--7--7--7--7--7--7--7--7--7--7--|
G|--5--5--5--5--5--5--5--5--5--5--|--5--5--5--5--5--5--5--5--5--5--|
C|--------------------------------|--------------------------------|

D|--------------------------------|--------------------------------|
A|--------------------------------|--------------------------------|
F|--------------------------------|--------------------------------|
C|--7--7--7--7--7--7--7--7--7--7--|--9--9--9--9--9--9--9--9--9--9--|
G|--7--7--7--7--7--7--7--7--7--7--|--9--9--9--9--9--9--9--9--9--9--|
C|--7--7--7--7--7--7--7--7--7--7--|--9--9--9--9--9--9--9--9--9--9--|

[Post-Chorus] Guitar 1:(x2)
"In Bloom..."
D|------12------------12------|-----12------------12-------|
A|----------14------------12--|----------14----------------|
F|--14------------14----------|--14------------14------14--|
C|----------------------------|----------------------------|
G|----------------------------|----------------------------|
C|----------------------------|----------------------------|

[Post-Chorus] Guitar 2: (x2)
"In Bloom..."
D|--------------------------------|--------------------------------|
A|--------------------------------|--------------------------------|
F|--7--7--7--7--7--7--7--7--7--7--|--7--7--7--7--7--7--7--7--7--7--|
C|--7--7--7--7--7--7--7--7--7--7--|--7--7--7--7--7--7--7--7--7--7--|
G|--5--5--5--5--5--5--5--5--5--5--|--5--5--5--5--5--5--5--5--5--5--|
C|--------------------------------|--------------------------------|

D|--------------------------------|--------------------------------|
A|--------------------------------|--------------------------------|
F|--------------------------------|--------------------------------|
C|--7--7--7--7--7--7--7--7--7--7--|--9--9--9--9--9--9--9--9--9--9--|
G|--7--7--7--7--7--7--7--7--7--7--|--9--9--9--9--9--9--9--9--9--9--|
C|--7--7--7--7--7--7--7--7--7--7--|--9--9--9--9--9--9--9--9--9--9--|

[Verse 2] Guitar 2:(x4)
"And Thinking Back Upon Those Days..."
D|-----------------------------------------|--------------------------------------------|
A|--x--x-10-10--x-10-10--x-10-10--x-10-10--|--x--x-10-10--x-10-10--x-10-10--x-12-12-12--|
F|--x--x--9--9--x--9--9--x--9--9--x--9--9--|--x--x--9--9--x--9--9--x--9--9--x-11-11-11--|
C|--x--x--7--7--x--7--7--x--7--7--x--7--7--|--x--x--7--7--x--7--7--x--7--7--x--9--9--9--|
G|-----------------------------------------|--------------------------------------------|
C|-----------------------------------------|--------------------------------------------|

[PreChorus] Guitar 2
"And This Will Be The Last Time..."
D|--17--|--|--17------|--|---17--------------|--|---17------|--|
A|------|--|------17--|--|-------17------17--|--|---17------|--|
F|------|--|----------|--|-----------18------|--|-------14--|--|
C|------|--|----------|--|-------------------|--|-----------|--|
G|------|--|----------|--|-------------------|--|-----------|--|
C|------|--|----------|--|-------------------|--|-----------|--|


[PreChorus] Guitar 2
"And This Will Be The Last Time..."
D|-----|--|----------------|--|--|--|----------|--|
A|-10--|--|----------------|--|--|--|----------|--|
F|--9--|--|--14/16--16-14--|--|--|--|--16--16--|--|
C|--7--|--|---x--x---x--x--|--|--|--|---x---x--|--|
G|-----|--|--12/14--14\12--|--|--|--|--14--14--|--|
C|-----|--|----------------|--|--|--|----------|--|

[Chorus] Guitar 1: (x2)
"And Stop Calling Me Out..."
D|----------------------------------------------|----------------------------------------------|
A|----------------------------------------------|----------------------------------------------|
F|--14--14--14--14--14--14--14--14--14--14--14--|--14--14--14--14--14--14--14--14--14--14--14--|
C|---x---x---x---x---x---x---x---x---x---x---x--|---x---x---x---x---x---x---x---x---x---x---x--|
G|--12--12--12--12--12--12--12--12--12--12--12--|--12--12--12--12--12--12--12--12--12--12--12--|
C|----------------------------------------------|----------------------------------------------|

D|----------------------------------------------|-------------------------------------------------|
A|----------------------------------------------|-------------------------------------------------|
F|--14--14--14--14--14--14--14--14--14--14--14--|--14/16--16--16--16--16--16--16--16--16--16--16--|
C|---x---x---x---x---x---x---x---x---x---x---x--|---x-x----x---x---x---x---x---x---x---x---x---x--|
G|--12--12--12--12--12--12--12--12--12--12--12--|--12/14--14--14--14--14--14--14--14--14--14--14--|
C|----------------------------------------------|-------------------------------------------------|

[Chorus] Guitar 2: (x2)
"And Stop Calling Me Out..."
D|--------------------------------|--------------------------------|
A|--------------------------------|--------------------------------|
F|--7--7--7--7--7--7--7--7--7--7--|--7--7--7--7--7--7--7--7--7--7--|
C|--7--7--7--7--7--7--7--7--7--7--|--7--7--7--7--7--7--7--7--7--7--|
G|--5--5--5--5--5--5--5--5--5--5--|--5--5--5--5--5--5--5--5--5--5--|
C|--------------------------------|--------------------------------|

D|--------------------------------|--------------------------------|
A|--------------------------------|--------------------------------|
F|--------------------------------|--------------------------------|
C|--7--7--7--7--7--7--7--7--7--7--|--9--9--9--9--9--9--9--9--9--9--|
G|--7--7--7--7--7--7--7--7--7--7--|--9--9--9--9--9--9--9--9--9--9--|
C|--7--7--7--7--7--7--7--7--7--7--|--9--9--9--9--9--9--9--9--9--9--|

[Solo] Guitar 1:(x2)
D|------------------------|-------------------12\9--|------------------------|----------------9-------------|
A|--12/14--14--12--10-----|--12/14--14\12\10--------|--12/14--14--12--10-----|--12\10-----10-----10-----10--|
F|---------------------9--|-------------------------|---------------------9--|---------9-------------9------|
C|------------------------|-------------------------|------------------------|------------------------------|
G|------------------------|-------------------------|------------------------|------------------------------|
C|------------------------|-------------------------|------------------------|------------------------------|

[Solo] Guitar 2:(x2)
D|-----------|-----------|-----------|---------------------------|
A|-----------|-----------|-----------|---------------------------|
F|-----------|-----------|-----------|---------------------------|
C|--0--0--0--|--0--0--0--|--7--7--7--|--9--9--9--11--11--11--11--|
G|--0--0--0--|--0--0--0--|--7--7--7--|--9--9--9--11--11--11--11--|
C|--0--0--0--|--0--0--0--|--7--7--7--|--9--9--9--11--11--11--11--|


[Breakdown Chorus] Guitar 1: (x2)
"And Stop Calling Me Out..."
D|------------------------|-------------------|
A|-----5-----------5------|-----5----------0--|
F|--------6-----------6---|--------6----------|
C|--7-----------7---------|--7----------7-----|
G|------------------------|-------------------|
C|------------------------|-------------------|

[Chorus] Guitar 1: (x2)
"And Stop Calling Me Out..."
D|----------------------------------------------|----------------------------------------------|
A|----------------------------------------------|----------------------------------------------|
F|--14--14--14--14--14--14--14--14--14--14--14--|--14--14--14--14--14--14--14--14--14--14--14--|
C|---x---x---x---x---x---x---x---x---x---x---x--|---x---x---x---x---x---x---x---x---x---x---x--|
G|--12--12--12--12--12--12--12--12--12--12--12--|--12--12--12--12--12--12--12--12--12--12--12--|
C|----------------------------------------------|----------------------------------------------|

D|----------------------------------------------|-------------------------------------------------|
A|----------------------------------------------|-------------------------------------------------|
F|--14--14--14--14--14--14--14--14--14--14--14--|--14/16--16--16--16--16--16--16--16--16--16--16--|
C|---x---x---x---x---x---x---x---x---x---x---x--|---x-x----x---x---x---x---x---x---x---x---x---x--|
G|--12--12--12--12--12--12--12--12--12--12--12--|--12/14--14--14--14--14--14--14--14--14--14--14--|
C|----------------------------------------------|-------------------------------------------------|

[Chorus] Guitar 2: (x2)
"And Stop Calling Me Out..."
D|--------------------------------|--------------------------------|
A|--------------------------------|--------------------------------|
F|--7--7--7--7--7--7--7--7--7--7--|--7--7--7--7--7--7--7--7--7--7--|
C|--7--7--7--7--7--7--7--7--7--7--|--7--7--7--7--7--7--7--7--7--7--|
G|--5--5--5--5--5--5--5--5--5--5--|--5--5--5--5--5--5--5--5--5--5--|
C|--------------------------------|--------------------------------|

D|--------------------------------|--------------------------------|
A|--------------------------------|--------------------------------|
F|--------------------------------|--------------------------------|
C|--7--7--7--7--7--7--7--7--7--7--|--9--9--9--9--9--9--9--9--9--9--|
G|--7--7--7--7--7--7--7--7--7--7--|--9--9--9--9--9--9--9--9--9--9--|
C|--7--7--7--7--7--7--7--7--7--7--|--9--9--9--9--9--9--9--9--9--9--|

[Post-Chorus] Guitar 1:(x2)
"In Bloom..."
D|------12------------12------|-----12------------12-------|
A|----------14------------12--|----------14----------------|
F|--14------------14----------|--14------------14------14--|
C|----------------------------|----------------------------|
G|----------------------------|----------------------------|
C|----------------------------|----------------------------|

[Post-Chorus] Guitar 2: (x2)
"In Bloom..."
D|--------------------------------|--------------------------------|
A|--------------------------------|--------------------------------|
F|--7--7--7--7--7--7--7--7--7--7--|--7--7--7--7--7--7--7--7--7--7--|
C|--7--7--7--7--7--7--7--7--7--7--|--7--7--7--7--7--7--7--7--7--7--|
G|--5--5--5--5--5--5--5--5--5--5--|--5--5--5--5--5--5--5--5--5--5--|
C|--------------------------------|--------------------------------|

D|--------------------------------|--------------------------------|
A|--------------------------------|--------------------------------|
F|--------------------------------|--------------------------------|
C|--7--7--7--7--7--7--7--7--7--7--|--9--9--9--9--9--9--9--9--9--9--|
G|--7--7--7--7--7--7--7--7--7--7--|--9--9--9--9--9--9--9--9--9--9--|
C|--7--7--7--7--7--7--7--7--7--7--|--9--9--9--9--9--9--9--9--9--9--|

[Outro] Guitar 1: (x2)
"And Stop Calling Me Out..."
D|--------------|----------------------|--------------|--------0---------------|
A|-----------0--|--------0-------0-----|-----------0--|-----2-----0--2--2b3r2--|
F|-----6--------|-----6-------------6--|-----6--------|--2--------------2------|
C|--7-----7-----|--7----------7--------|--7-----7-----|-----------------0------|
G|--------------|----------------------|--------------|------------------------|
C|--------------|----------------------|--------------|------------------------|

____________________________________________________________________________________________________

                                    T06.   DON'T WAIT (FT. SAM CARTER)
____________________________________________________________________________________________________

Tuning: Drop C# (C# G# C# F# A# D#)

[Intro] Guitar 1
D#|--------------------------------------------|-------------------------------------------|
A#|--------------------------------------------|-------------------------------------------|
F#|--9--9--9--9--9--9--9--9--9--9--9--9--9--9--|--4--4--4--4--4--4--4--4--4/5--5--5--5--5--|
C#|--x--x--x--x--x--x--x--x--x--x--x--x--x--x--|--x--x--x--x--x--x--x--x--x-x--x--x--x--x--|
G#|--7--7--7--7--7--7--7--7--7--7--7--7--7--7--|--2--2--2--2--2--2--2--2--2/3--3--3--3--3--|
C#|--------------------------------------------|-------------------------------------------|(x2)

D#|----------------------------|
A#|--8-------8-----8-----8-----|
F#|-----9-------9-----9-----9--|
C#|----------------------------|
G#|----------------------------|
C#|----------------------------|

[Intro] Guitar 2
D#|--------------------------------------------|
A#|--------------------------------------------|
F#|--------------------------------------------|
C#|--------------------------------------------|
G#|--------------------------------------------|
C#|---7--7--7--7--7--7--7--7--7--7--7--7--7p5--|(x4)

D#|------------------------------------------------------------------------------------|
A#|------------------------------------------------------------------------------------|
F#|--------------------------------------------7--7--7--7--7--7--7--7--7---------------|
C#|--3--3--3--3--3--3--3--3--3--3--3--3--3--3--7--7--7--7--7--7--7--7--7--5----5----5--|
G#|--3--3--3--3--3--3--3--3--3--3--3--3--3--3--5--5--5--5--5--5--5--5--5--5----5----5--|
C#|--3--3--3--3--3--3--3--3--3--3--3--3--3--3-----------------------------5----5----5--|

[Verse] Guitar 2: (x2)
"Disrupting, Keep Dividing..."
D#|---------------------------------------------|
A#|---------------------------------------------|
F#|---------------------------------------------|
C#|---------------------------------------------|
G#|---------------------------------------------|
C#|---7--7--7--7--7--7--7--7--7--7--7--7--7--7--|(x4)
"I'm Not Gonna Be A Fallacy..."
D#|---------------------------------------------------------------|
A#|---------------------------------------------------------------|
F#|---------------------------------------------------------------|
C#|--3--3--3--3--3--3--3--3--3--2--0--0--0--0--0--0--5----5----5--|
G#|--3--3--3--3--3--3--3--3--3--2--0--0--0--0--0--0--5----5----5--|
C#|--3--3--3--3--3--3--3--3--3--2--0--0--0--0--0--0--5----5----5--|

[Verse Part 2] Guitar 1: (x2)
"I'm Not Gonna Be A Fallacy..."
D#|--------------15------|
A#|------17----------17--|
F#|--14------14----------|
C#|----------------------|
G#|----------------------|
C#|----------------------|(x2)


[PreChourus] Guitar 2:
"And They've Got You By Your Strings..."
D#|-----------------------------------------------|-----------------------------------------------|
A#|-----------------------------------------------|-----------------------------------------------|
F#|-----------------------------------------------|--5--5--5--5--5--5--5--5--5--5--5--5--5--5--5--|
C#|--3--3--3--3--3--3--3--3--3--3--3--3--3--3--3--|--5--5--5--5--5--5--5--5--5--5--5--5--5--5--5--|
G#|--3--3--3--3--3--3--3--3--3--3--3--3--3--3--3--|--3--3--3--3--3--3--3--3--3--3--3--3--3--3--3--|
C#|--3--3--3--3--3--3--3--3--3--3--3--3--3--3--3--|-----------------------------------------------|

D#|-----------------------------------------------|-----------------------------------------------|
A#|-----------------------------------------------|-----------------------------------------------|
F#|-----------------------------------------------|-----------------------------------------------|
C#|--5--5--5--5--5--5--5--5--5--5--5--5--5--5--5--|--5--5--5--5--5--5--5--5--5--5--5--5--5--5--5--|
G#|--5--5--5--5--5--5--5--5--5--5--5--5--5--5--5--|--5--5--5--5--5--5--5--5--5--5--5--5--5--5--5--|
C#|--5--5--5--5--5--5--5--5--5--5--5--5--5--5--5--|--5--5--5--5--5--5--5--5--5--5--5--5--5--5--5--|


[PreChourus] Guitar 1:
"And They've Got You By Your Strings..."
D#|-----------------------|-----------------------|-----------------------|-----------------------|
A#|--------------0-----0--|--------------0-----0--|--------------0-----0--|--------------0-----0--|
F#|-----------------5-----|-----------------5-----|-----------------5-----|-----------------5-----|
C#|--7--7--7--7-----------|--7--7--7--7-----------|--5--5--5--5-----------|--5--5--5--5-----------|
G#|-----------------------|-----------------------|-----------------------|-----------------------|
C#|-----------------------|-----------------------|-----------------------|-----------------------|

D#|-----------------------|-----------------------|--------------7h8--|--------------7h8--|
A#|--------------0-----0--|--------------0-----0--|--8--8--8--8-------|--8--8--8--8-------|
F#|-----------------5-----|-----------------5-----|-------------------|-------------------|
C#|--5--5--5--5-----------|--5--5--5--5-----------|-------------------|-------------------|
G#|-----------------------|-----------------------|-------------------|-------------------|
C#|-----------------------|-----------------------|-------------------|-------------------|


[Chorus] Guitar 1: (x4)
"Don't Wait For Anyone..."
D#|-----------------------|-----------------------|
A#|-----------------------|-----------------------|
F#|--9--9--9--9--9--9--9--|--4--4--4--4--5--5--5--|
C#|--x--x--x--x--x--x--x--|--x--x--x--x--x--x--x--|
G#|--7--7--7--7--7--7--7--|--2--2--2--2--3--3--3--|
C#|-----------------------|-----------------------|

[Chorus] Guitar 2: (x2)
"Don't Wait For Anyone..."
D#|--------------------------|--------------------------|--------------------------|-------------------------|
A#|--------------------------|--------------------------|--------------------------|-------------------------|
F#|--------------------------|--------------------------|--------------------------|-------------------------|
C#|--3--3--3--3--3--3--3--3--|--0--0--0--0--0--0--0--0--|--7--7--7--7--7--7--7--7--|--5--5--5--5--5--5--5--5-|
G#|--3--3--3--3--3--3--3--3--|--0--0--0--0--0--0--0--0--|--7--7--7--7--7--7--7--7--|--5--5--5--5--5--5--5--5-|
C#|--3--3--3--3--3--3--3--3--|--0--0--0--0--0--0--0--0--|--7--7--7--7--7--7--7--7--|--5--5--5--5--5--5--5--5-|

[Post-Chorus] Guitar 1:
"Oh Woah-Oh..."
D#|----------|
A#|----------|
F#|--5----4--|
C#|--x----x--|
G#|--3----2--|
C#|----------|

[Post-Chorus] Guitar 2:
"Oh Woah-Oh..."
D#|----------|
A#|----------|
F#|----------|
C#|--3----5--|
G#|--3----5--|
C#|--3----5--|

*Verse Guitar Silence*

[Verse] Guitar 2: (x2)
"I'm Not Gonna Be A Fallacy..."
D#|---------------------------------------------------------------------|
A#|---------------------------------------------------------------------|
F#|---------------------------------------------------------------------|
C#|--7--7--3--3--3--3--3--3--3--3--3--2--0--0--0--0--0--0--5----5----5--|
G#|--7--7--3--3--3--3--3--3--3--3--3--2--0--0--0--0--0--0--5----5----5--|
C#|--7--7--3--3--3--3--3--3--3--3--3--2--0--0--0--0--0--0--5----5----5--|

[Verse Part 2] Guitar 1: (x2)
"I'm Not Gonna Be A Fallacy..."
D#|--------------15------|
A#|------17----------17--|
F#|--14------14----------|
C#|----------------------|
G#|----------------------|
C#|----------------------|(x2)

[Verse Part 3] Guitar 1:
"Disrupt And Disobey The Lies They Say"
D#|------------------|
A#|----------13------|
F#|--14--16------16--|
C#|------------------|
G#|------------------|
C#|------------------|(x4)

[PreChourus] Guitar 2:
"And They've Got You On Your Knees..."
D#|-----------------------------------------------|-----------------------------------------------|
A#|-----------------------------------------------|-----------------------------------------------|
F#|-----------------------------------------------|--5--5--5--5--5--5--5--5--5--5--5--5--5--5--5--|
C#|--3--3--3--3--3--3--3--3--3--3--3--3--3--3--3--|--5--5--5--5--5--5--5--5--5--5--5--5--5--5--5--|
G#|--3--3--3--3--3--3--3--3--3--3--3--3--3--3--3--|--3--3--3--3--3--3--3--3--3--3--3--3--3--3--3--|
C#|--3--3--3--3--3--3--3--3--3--3--3--3--3--3--3--|-----------------------------------------------|

D#|-----------------------------------------------|-----------------------------------------------|
A#|-----------------------------------------------|-----------------------------------------------|
F#|-----------------------------------------------|-----------------------------------------------|
C#|--5--5--5--5--5--5--5--5--5--5--5--5--5--5--5--|--5--5--5--5--5--5--5--5--5--5--5--5--5--5--5--|
G#|--5--5--5--5--5--5--5--5--5--5--5--5--5--5--5--|--5--5--5--5--5--5--5--5--5--5--5--5--5--5--5--|
C#|--5--5--5--5--5--5--5--5--5--5--5--5--5--5--5--|--5--5--5--5--5--5--5--5--5--5--5--5--5--5--5--|


[PreChourus] Guitar 1:
"And They've Got You On Your Knees..."
D#|-----------------------|-----------------------|-----------------------|-----------------------|
A#|--------------0-----0--|--------------0-----0--|--------------0-----0--|--------------0-----0--|
F#|-----------------5-----|-----------------5-----|-----------------5-----|-----------------5-----|
C#|--7--7--7--7-----------|--7--7--7--7-----------|--5--5--5--5-----------|--5--5--5--5-----------|
G#|-----------------------|-----------------------|-----------------------|-----------------------|
C#|-----------------------|-----------------------|-----------------------|-----------------------|

D#|-----------------------|-----------------------|--------------7h8--|--------------7h8--|
A#|--------------0-----0--|--------------0-----0--|--8--8--8--8-------|--8--8--8--8-------|
F#|-----------------5-----|-----------------5-----|-------------------|-------------------|
C#|--5--5--5--5-----------|--5--5--5--5-----------|-------------------|-------------------|
G#|-----------------------|-----------------------|-------------------|-------------------|
C#|-----------------------|-----------------------|-------------------|-------------------|


[Chorus] Guitar 1: (x4)
"Don't Wait For Anyone..."
D#|-----------------------|-----------------------|
A#|-----------------------|-----------------------|
F#|--9--9--9--9--9--9--9--|--4--4--4--4--5--5--5--|
C#|--x--x--x--x--x--x--x--|--x--x--x--x--x--x--x--|
G#|--7--7--7--7--7--7--7--|--2--2--2--2--3--3--3--|
C#|-----------------------|-----------------------|

[Chorus] Guitar 2: (x2)
"Don't Wait For Anyone..."
D#|--------------------------|--------------------------|--------------------------|-------------------------|
A#|--------------------------|--------------------------|--------------------------|-------------------------|
F#|--------------------------|--------------------------|--------------------------|-------------------------|
C#|--3--3--3--3--3--3--3--3--|--0--0--0--0--0--0--0--0--|--7--7--7--7--7--7--7--7--|--5--5--5--5--5--5--5--5-|
G#|--3--3--3--3--3--3--3--3--|--0--0--0--0--0--0--0--0--|--7--7--7--7--7--7--7--7--|--5--5--5--5--5--5--5--5-|
C#|--3--3--3--3--3--3--3--3--|--0--0--0--0--0--0--0--0--|--7--7--7--7--7--7--7--7--|--5--5--5--5--5--5--5--5-|

[Post-Chorus] Guitar 1:
"Oh Woah-Oh..."
D#|----------|
A#|----------|
F#|--5----4--|
C#|--x----x--|
G#|--3----2--|
C#|----------|

[Post-Chorus] Guitar 2:
"Oh Woah-Oh..."
D#|----------|
A#|----------|
F#|----------|
C#|--3----5--|
G#|--3----5--|
C#|--3----5--|

[Bridge] Guitar 2:
"No Path, No Grave..."
D#|---------------------------------------------|
A#|---------------------------------------------|
F#|---------------------------------------------|
C#|---------------------------------------------|
G#|---------------------------------------------|
C#|---7--7--7--7--7--7--7--7--7--7--7--7--7--7--|(x10)

[Bridge] Guitar 1:
"No Path, No Grave..."
D#|-----------------------------------------------|-----------------------------------------------|
A#|-----------------------------------------------|-----------------------------------------------|
A#|--9--9--9--9--9--9--9--9--9--9--9--9--9--9--9--|--5--5--5--5--5--5--5--5--5--5--5--5--5--5--5--|
C#|--x--x--x--x--x--x--x--x--x--x--x--x--x--x--x--|--x--x--x--x--x--x--x--x--x--x--x--x--x--x--x--|
G#|--7--7--7--7--7--7--7--7--7--7--7--7--7--7--7--|--3--3--3--3--3--3--3--3--3--3--3--3--3--3--3--|
C#|-----------------------------------------------|-----------------------------------------------|

D#|-----------------------------------------------|-------------------------------------------|
A#|-----------------------------------------------|-------------------------------------------|
A#|--7--7--7--7--7--7--7--7--7--7--7--7--7--7--7--|--4--4--4--4--4--4--4/5--5--5--5--5--5--5--|
C#|--x--x--x--x--x--x--x--x--x--x--x--x--x--x--x--|--x--x--x--x--x--x--x-x--x--x--x--x--x--x--|
G#|--5--5--5--5--5--5--5--5--5--5--5--5--5--5--5--|--2--2--2--2--2--2--2/3--3--3--3--3--3--3--|
C#|-----------------------------------------------|-------------------------------------------|

D#|-----------------------------------------------|-----------------------------------------------|
A#|-----------------------------------------------|-----------------------------------------------|
A#|--9--9--9--9--9--9--9--9--9--9--9--9--9--9--9--|--5--5--5--5--5--5--5--5--5--5--5--5--5--5--5--|
C#|--x--x--x--x--x--x--x--x--x--x--x--x--x--x--x--|--x--x--x--x--x--x--x--x--x--x--x--x--x--x--x--|
G#|--7--7--7--7--7--7--7--7--7--7--7--7--7--7--7--|--3--3--3--3--3--3--3--3--3--3--3--3--3--3--3--|
C#|-----------------------------------------------|-----------------------------------------------|

D#|------------------------------------------------|-------------------------------------------|
A#|------------------------------------------------|-------------------------------------------|
A#|--12-12-12-12-12-12-12-12-12-12-12-12-12-12-12--|--4--4--4--4--4--4--4/5--5--5--5--5--5--5--|
C#|--x--x--x--x--x--x--x--x--x--x--x--x--x--x--x---|--x--x--x--x--x--x--x-x--x--x--x--x--x--x--|
G#|--10-10-10-10-10-10-10-10-10-10-10-10-10-10-10--|--2--2--2--2--2--2--2/3--3--3--3--3--3--3--|
C#|------------------------------------------------|-------------------------------------------|

[Chorus] Guitar 1: (x4)
"Don't Wait For Anyone..."
D#|-----------------------|-----------------------|
A#|-----------------------|-----------------------|
F#|--9--9--9--9--9--9--9--|--4--4--4--4--5--5--5--|
C#|--x--x--x--x--x--x--x--|--x--x--x--x--x--x--x--|
G#|--7--7--7--7--7--7--7--|--2--2--2--2--3--3--3--|
C#|-----------------------|-----------------------|

[Chorus] Guitar 2: (x2)
"Don't Wait For Anyone..."
D#|--------------------------|--------------------------|--------------------------|-------------------------|
A#|--------------------------|--------------------------|--------------------------|-------------------------|
F#|--------------------------|--------------------------|--------------------------|-------------------------|
C#|--3--3--3--3--3--3--3--3--|--0--0--0--0--0--0--0--0--|--7--7--7--7--7--7--7--7--|--5--5--5--5--5--5--5--5-|
G#|--3--3--3--3--3--3--3--3--|--0--0--0--0--0--0--0--0--|--7--7--7--7--7--7--7--7--|--5--5--5--5--5--5--5--5-|
C#|--3--3--3--3--3--3--3--3--|--0--0--0--0--0--0--0--0--|--7--7--7--7--7--7--7--7--|--5--5--5--5--5--5--5--5-|


[Outro] Guitar 2: (x2)
"No Path, No Grave, No Justice, No Peace..."
D#|--------------------------|--------------------------|--------------------------|-------------------------|
A#|--------------------------|--------------------------|--------------------------|-------------------------|
F#|--------------------------|--------------------------|--------------------------|-------------------------|
C#|--3--3--3--3--3--3--3--3--|--0--0--0--0--0--0--0--0--|--7--7--7--7--7--7--7--7--|--5--5--5--5--5--5--5--5-|
G#|--3--3--3--3--3--3--3--3--|--0--0--0--0--0--0--0--0--|--7--7--7--7--7--7--7--7--|--5--5--5--5--5--5--5--5-|
C#|--3--3--3--3--3--3--3--3--|--0--0--0--0--0--0--0--0--|--7--7--7--7--7--7--7--7--|--5--5--5--5--5--5--5--5-|
(Palm Mute)

[Outro] Guitar 1: (x2)
"No Path, No Grave, No Justice, No Peace..."
D#|------------------|--------------|
A#|----------13------|----------13--|
F#|--14--16------16--|--14--16------|
C#|------------------|--------------|
G#|------------------|--------------|
C#|------------------|--------------|(x2)

D#|------------------|--------------|
A#|----------17------|----------20--|
F#|--16--17------17--|--16--17------|
C#|------------------|--------------|
G#|------------------|--------------|
C#|------------------|--------------|

D#|------------------|--------------|
A#|----------17------|----------15--|
F#|--16--17------17--|--16--17------|
C#|------------------|--------------|
G#|------------------|--------------|
C#|------------------|--------------|

____________________________________________________________________________________________________

                                            T07.   CRITICAL MISTAKE
____________________________________________________________________________________________________



Tuning: Half Step Down (D# G# C# F# A# D#)

[Intro/Verse] Guitar 2(x10)
"Why Do I Even Bother Calling You!?"
D#|-----------|-----------|
A#|-----------|-----------|
F#|--9--------|-----------|
C#|--9--9--9--|--4--6--6--|
G#|--7--9--9--|--4--6--6--|
D#|-----7--7--|--2--4--4--|

[Verse] Guitar 1
"So Then I'll Take All The Blame..."
D#|--------------------------------------------------------------|
A#|--19--19--19--19--19--19--19--14------14------16------16------|
F#|--16--16--16--16--16--16--16------16------16------16------16--|
C#|--------------------------------------------------------------|
G#|--------------------------------------------------------------|
D#|--------------------------------------------------------------|

[Chorus] Guitar 2: (x4)
"I Could Be Everything You Need..."
D#|--------------------|--------------------------|
A#|--------------------|--------------------------|
F#|-----4--4--4--4--4--|--------------------------|
C#|--2--4--4--4--4--4--|--4--4--4--4--6--6--6--6--|
G#|--2--2--2--2--2--2--|--4--4--4--4--6--6--6--6--|
D#|--0-----------------|--2--2--2--2--4--4--4--4--|

[Chorus] Guitar 1(x4)
"I Could Be Everything You Need..."
D#|--7--7--7--7--7--7--6--6--6--6--7--7--7--7--|
A#|--7--7--7--7--7--7--7--7--7--7--7--7--7--7--|
F#|--------------------------------------------|
C#|--------------------------------------------|
G#|--------------------------------------------|
D#|--------------------------------------------|


[Post-Chorus] (x2)
"It's The Way..."
D#|--------------|-------------------------|
A#|--------------|-------------------------|
F#|--------4--4--|-------------------------|
C#|--2--2--4--4--|--6--6----4--4--4--4--4--|
G#|--2--2--2--2--|--6--6----4--4--4--4--4--|
D#|--0--0--------|--4--4----2--2--2--2--2--|

[Post-Chorus] Guitar 1(x2)
"It's The Way..."
D#|--7--7--7--7--7--7--6--6--6--6--7--7--7--7--|
A#|--7--7--7--7--7--7--7--7--7--7--7--7--7--7--|
F#|--------------------------------------------|
C#|--------------------------------------------|
G#|--------------------------------------------|
D#|--------------------------------------------|

[Intro/Verse] Guitar 2(x8)
"I'm A City You're A Saint"
D#|-----------|-----------|
A#|-----------|-----------|
F#|--9--------|-----------|
C#|--9--9--9--|--4--6--6--|
G#|--7--9--9--|--4--6--6--|
D#|-----7--7--|--2--4--4--|

[Verse] Guitar 1
"But It Only Lasts So Long..."
D#|--------------------------------------------------------------|
A#|--19--19--19--19--19--19--19--14------14------16------16------|
F#|--16--16--16--16--16--16--16------16------16------16------16--|
C#|--------------------------------------------------------------|
G#|--------------------------------------------------------------|
D#|--------------------------------------------------------------|

[Chorus] Guitar 2: (x4)
"I Could Be Everything You Need..."
D#|--------------------|--------------------------|
A#|--------------------|--------------------------|
F#|-----4--4--4--4--4--|--------------------------|
C#|--2--4--4--4--4--4--|--4--4--4--4--6--6--6--6--|
G#|--2--2--2--2--2--2--|--4--4--4--4--6--6--6--6--|
D#|--0-----------------|--2--2--2--2--4--4--4--4--|

[Chorus] Guitar 1(x4)
"I Could Be Everything You Need..."
D#|--7--7--7--7--7--7--6--6--6--6--7--7--7--7--|
A#|--7--7--7--7--7--7--7--7--7--7--7--7--7--7--|
F#|--------------------------------------------|
C#|--------------------------------------------|
G#|--------------------------------------------|
D#|--------------------------------------------|


[Post-Chorus] (x2)
"It's The Way..."
D#|--------------|-------------------------|
A#|--------------|-------------------------|
F#|--------4--4--|-------------------------|
C#|--2--2--4--4--|--6--6----4--4--4--4--4--|
G#|--2--2--2--2--|--6--6----4--4--4--4--4--|
D#|--0--0--------|--4--4----2--2--2--2--2--|

[Post-Chorus] Guitar 1(x2)
"It's The Way..."
D#|--7--7--7--7--7--7--6--6--6--6--7--7--7--7--|
A#|--7--7--7--7--7--7--7--7--7--7--7--7--7--7--|
F#|--------------------------------------------|
C#|--------------------------------------------|
G#|--------------------------------------------|
D#|--------------------------------------------|

[Bridge] Guitar 2 (x2)
"And You Always Seem Too Perfect..."
D#|--------------------|--------------------|--------------------------|--------------------------|
A#|--------------------|--------------------|--------------------------|--------------------------|
F#|--9----9----9----9--|--8----8----8----8--|--------------------------|--------------------------|
C#|--9----9----9----9--|--9----9----9----9--|--6--6--6--6--6--6--6--6--|--4--4--4--4--4--4--4--4--|
G#|--7----7----7----7--|--6----6----6----6--|--6--6--6--6--6--6--6--6--|--4--4--4--4--4--4--4--4--|
D#|--------------------|--------------------|--4--4--4--4--4--4--4--4--|--2--2--2--2--2--2--2--2--|(x2)

D#|------------------------|------------------------|------------------------|------------------------|
A#|------------------------|------------------------|------------------------|------------------------|
F#|-9--9--9--9--9--9--9--9-|-8--8--8--8--8--8--8--8-|------------------------|------------------------|
C#|-9--9--9--9--9--9--9--9-|-9--9--9--9--9--9--9--9-|-6--6--6--6--6--6--6--6-|-4--4--4--4--4--4--4--4-|
G#|-7--7--7--7--7--7--7--7-|-6--6--6--6--6--6--6--6-|-6--6--6--6--6--6--6--6-|-4--4--4--4--4--4--4--4-|
D#|------------------------|------------------------|-4--4--4--4--4--4--4--4-|-2--2--2--2--2--2--2--2-|(x2)

[Bridge] Guitar 1 (x2)
"And I Know I Could Be Better..."
D#|------------------------------------------------------|
A#|---------12---------12---------------12--14/16\14\12--|
F#|--11h13------11h13------------11h13-------------------|
C#|------------------------------------------------------|
G#|------------------------------------------------------|
D#|------------------------------------------------------|

[Verse 3] Guitar 2(x4)
"You Made A Critical Mistake..."
D#|-----------|-----------|
A#|-----------|-----------|
F#|--9--------|-----------|
C#|--9--9--9--|--4--6--6--|
G#|--7--9--9--|--4--6--6--|
D#|-----7--7--|--2--4--4--|

[Verse 3] Guitar 1
"Now I'm Walking Out The Door..."
D#|---------|-----------|-----------|------------------|
A#|---------|-----------|-----------|------------------|
F#|---------|-----------|-----------|------------------|
C#|--9--9---|--8--9--9--|--9--9--9--|--8--9--9--11--9--|
G#|---------|--9--9--9--|--9--9--9--|--9--9--9---9--9--|
D#|---------|-----------|-----------|------------------|

[Chorus] Guitar 2: (x4)
"I Could Be Everything You Need..."
D#|--------------------|--------------------------|
A#|--------------------|--------------------------|
F#|-----4--4--4--4--4--|--------------------------|
C#|--2--4--4--4--4--4--|--4--4--4--4--6--6--6--6--|
G#|--2--2--2--2--2--2--|--4--4--4--4--6--6--6--6--|
D#|--0-----------------|--2--2--2--2--4--4--4--4--|

[Chorus] Guitar 1(x4)
"I Could Be Everything You Need..."
D#|--7--7--7--7--7--7--6--6--6--6--7--7--7--7--|
A#|--7--7--7--7--7--7--7--7--7--7--7--7--7--7--|
F#|--------------------------------------------|
C#|--------------------------------------------|
G#|--------------------------------------------|
D#|--------------------------------------------|


[Post-Chorus] (x4)
"It's The Way..."
D#|--------------|-------------------------|
A#|--------------|-------------------------|
F#|--------4--4--|-------------------------|
C#|--2--2--4--4--|--6--6----4--4--4--4--4--|
G#|--2--2--2--2--|--6--6----4--4--4--4--4--|
D#|--0--0--------|--4--4----2--2--2--2--2--|

[Post-Chorus] Guitar 1(x4)
"It's The Way..."
D#|--7--7--7--7--7--7--6--6--6--6--7--7--7--7--|
A#|--7--7--7--7--7--7--7--7--7--7--7--7--7--7--|
F#|--------------------------------------------|
C#|--------------------------------------------|
G#|--------------------------------------------|
D#|--------------------------------------------|

____________________________________________________________________________________________________

                                    T08.   WISH YOU WERE HERE (Chords)
____________________________________________________________________________________________________



Tuning: Half Step Down (D# G# C# F# A# D#)

(Play the chords as if you were in standard tuning)

E - 022102
B - x24442
F#- 244322
G#m-466444
D#5-x688xx

[Intro]
B F# E


[Verse 1]
B
Take it slow
                       F#             E
Tell me all how you've grown just for me

Could we all reminisce
B
Better yet, here's a pen
       F#
Make a list
        E
Fill it full with all the things I've missed
             F#
'Cause I can barely drive past the school
    G#m
Without stopping to think of you
    E
And how we used to act a fool
    F#
But worst of all I wish I called
   G#m
At least a thousand times or more
E
Just to hear what I've been missing


[Chorus]
B                          F#
If a picture is all that I have
                                E
I can picture the times that we won't get back
                             G#m
If I picture it now it don't seem so bad
       F#                         B
Either way, I still wish you were here
                                F#
Don't say everything's meant to be
                                  E
'Cause you know it's not what I believe
                                            G#m
Can't help but think that it should've been me
       F#                         B
Either way, I still wish you were here


[Interlude]
B F# E

e|--------------14------|--------------9------|--------------14------|--------------9------|
B|--12------12------12--|--12------12-----12--|--12------12------12--|--12------12-----12--|
G|------11--------------|------11-------------|------13--------------|------13-------------|
D|----------------------|---------------------|----------------------|---------------------|
A|----------------------|---------------------|----------------------|---------------------|
E|----------------------|---------------------|----------------------|---------------------|


[Verse 2]
B
Thinking back on the days
                     F#
Where we all used to say
       E
I know anywhere's better than here
       B
In the back of the class
                     F#
Where we grew up too fast
       E
Living life like there's nothing to fear
        F#
But the ice on the road
        G#m
Driving home all alone
        E
Singing along to a song from three summers ago
             F#                 G#m
The one that made you remember it
D#5      E
Now I'll always remember it
       F#
As the song that your life ended with


[Chorus 1]
B                          F#
If a picture is all that I have
                                E
I can picture the times that we won't get back
                             G#m
If I picture it now it don't seem so bad
       F#                         B
Either way, I still wish you were here
                                F#
Don't say everything's meant to be
                                  E
'Cause you know it's not what I believe
                                            G#m
Can't help but think that it should've been me
       F#                         G#m
Either way, I still wish you were here


[Bridge]
         E                          B
And they say you're in a better place
                                      G#m
But a better place is right here with me
          E                          F#
Yeah they say you're in a better place
                        B
Too bad it's not what I believe


[Bridge Riff]
e|--------------14------|--------------9------|--------------14------|----------------------|
B|--12------12------12--|--12------12-----12--|--12------12------12--|--12------12--11--12--|
G|------11--------------|------13-------------|------11--------------|------11--------------|
D|----------------------|---------------------|----------------------|----------------------|
A|----------------------|---------------------|----------------------|----------------------|
E|----------------------|---------------------|----------------------|----------------------|


[Chorus 2]
                               F#
'Cause a picture is all that I have
                               E
To remind me that you're never coming back
                                     G#m
If i picture it now it just makes me sad
          F#                         B
And right now I just wish you were here
                                F#
Don't say everything's meant to be
                                E
'Cause you know it's not what I believe
                                            G#m
Can't help but think that it should've been me
       F#                       B
In the end I just wish you were here


[Ending]
                                 F#
Yeah they say you're in a better place
                                 E
Either way I still wish you were here
                               G#m
They say you're in a better place
       F#                       B
In the end I just wish you were here

____________________________________________________________________________________________________

                                         T09.   HEAVY LIES
____________________________________________________________________________________________________



Tuning: Drop C (C G C F A D)

[Opening] Guitar 1:
D|----------------------------------|----------------------------------|
A|--5h6--6--6--6p5----3--3----5--5--|--5h6--6--6--6p5----8--8----5--5--|
F|--5----5--5--5------5--5----5--5--|--5----5--5--5------5--5----5--5--|
C|----------------------------------|----------------------------------|
G|----------------------------------|----------------------------------|
C|----------------------------------|----------------------------------|

D|--------------------------------|--------------------------------|
A|-10-10-10-10--------------------|-10-10-10-10--------------------|
F|--9--9--9--9--7--5--5--5--5--5--|--9--9--9--9--7--5--5--5--5--5--|
C|--7--7--7--7--7--5--5--5--5--5--|--7--7--7--7--7--5--5--5--5--5--|
G|--------------5--3--3--3--3--3--|--------------5--3--3--3--3--3--|
C|--------------------------------|--------------------------------|

[Intro] Guitar 1
D|---------15--------------|---------15-------------|---------15--------------|---------15-----------------|
A|--13/17--------13/17\15--|--13/17------17\13------|--13/17--------13/17\15--|--13/17------17\13------13--|
F|-------------------------|--------------------12--|-------------------------|--------------------12------|
C|-------------------------|------------------------|-------------------------|----------------------------|
G|-------------------------|------------------------|-------------------------|----------------------------|
C|-------------------------|------------------------|-------------------------|----------------------------|

[Intro] Guitar 2
D|-------------------------------------------------|-------------------------------------------------|
A|-------------------------------------------------|-------------------------------------------------|
F|--5--5--5--5--5--5--5--5----5--5--5--5--5--5--5--|--2--2--2--2--2--2--2--2----2--2--2--2--2--2--2--|
C|--5--5--5--5--5--5--5--5----5--5--5--5--5--5--5--|--2--2--2--2--2--2--2--2----2--2--2--2--2--2--2--|
G|--3--3--3--3--3--3--3--3----3--3--3--3--3--3--3--|--0--0--0--0--0--0--0--0----0--0--0--0--0--0--0--|
C|-------------------------------------------------|-------------------------------------------------|

D|-------------------------------------------------|-------------------------------------------------|
A|-------------------------------------------------|-------------------------------------------------|
F|-------------------------------------------------|-------------------------------------------------|
C|--5--5--5--5--5--5--5--5----5--5--5--5--5--5--5--|--3--3--3--3--3--3--3--3----3--3--3--3--3--3--3--|
G|--5--5--5--5--5--5--5--5----5--5--5--5--5--5--5--|--3--3--3--3--3--3--3--3----3--3--3--3--3--3--3--|
C|--5--5--5--5--5--5--5--5----5--5--5--5--5--5--5--|--3--3--3--3--3--3--3--3----3--3--3--3--3--3--3--|

[Intro] Guitar 3
D|-------------------------------------------------|------------------------------------------------|
A|-------------------------------------------------|------------------------------------------------|
F|--5--5--5--5--5--5--5--5----5--5--5--5--5--5--5--|--5--5--5--5--5--5--5--5----5--5--5--5-5--5--5--|
C|--x--x--x--x--x--x--x--x----x--x--x--x--x--x--x--|--x--x--x--x--x--x--x--x----x--x--x--x-x--x--x--|
G|--3--3--3--3--3--3--3--3----3--3--3--3--3--3--3--|--3--3--3--3--3--3--3--3----3--3--3--3/5--5--5--|
C|-------------------------------------------------|------------------------------------------------|

D|-----------------------------------------------|------------------------------------------------|
A|-----------------------------------------------|------------------------------------------------|
F|-7\4--4--4--4--4--4--4----4--4--4--4--4--4--4--|--4-5--5--5--5--5--5--5--5----5--5--5--5--5--5--|
C|-x-x--x--x--x--x--x--x----x--x--x--x--x--x--x--|--x-x--x--x--x--x--x--x--x----x--x--x--x--x--x--|
G|-5\2--2--2--2--2--2--2----2--2--2--2--2--2--2--|--2/3--3--3--3--3--3--3--3----3--3--3--3--3--3--|
C|-----------------------------------------------|------------------------------------------------|

[Verse] Guitar 1: (x2)
"What Goes Through Your Head?"
D|----------------------------------|----------------------------------|
A|--5h6--6--6--6p5----3--3----5--5--|--5h6--6--6--6p5----8--8----5--5--|
F|--5----5--5--5------5--5----5--5--|--5----5--5--5------5--5----5--5--|
C|----------------------------------|----------------------------------|
G|----------------------------------|----------------------------------|
C|----------------------------------|----------------------------------|

D|--------------------------------|--------------------------------|
A|-10-10-10-10--------------------|-10-10-10-10--------------------|
F|--9--9--9--9--7--5--5--5--5--5--|--9--9--9--9--7--5--5--5--5--5--|
C|--7--7--7--7--7--5--5--5--5--5--|--7--7--7--7--7--5--5--5--5--5--|
G|--------------5--3--3--3--3--3--|--------------5--3--3--3--3--3--|
C|--------------------------------|--------------------------------|

[Chorus] Guitar 1: (x2)
"I've Heard Some Heavy Lies..."
D|---------------------------------------------------|----------------------------------------------------|
A|---------------------------------------------------|----------------------------------------------------|
F|--17-17-17-17-17-17-17-17----17-17-17-17\16-16-16--|--16/17--17-17-17-17-17-17----17-17-17-17/19-19-19--|
C|---x--x--x--x--x--x--x--x-----x--x--x--x--x--x--x--|---x--x---x--x--x--x--x--x-----x--x--x--x--x--x--x--|
G|--15-15-15-15-15-15-15-15----15-15-15-15\14-14-14--|--14/15--15-15-15-15-15-15----15-15-15-15/17-17-17--|
C|---------------------------------------------------|----------------------------------------------------|

D|---------------------------------------------------|---------------------------------------------------|
A|---------------------------------------------------|---------------------------------------------------|
F|--19-16-16-16-16-16-16-16----16-16-16-16-16-16-16--|--16/17-17-17-17-17-17-17----17-17-17-17-17-17-17--|
C|---x--x--x--x--x--x--x--x-----x--x--x--x--x--x--x--|---x--x--x--x--x--x--x--x-----x--x--x--x--x--x--x--|
G|--17\14-14-14-14-14-14-14----14-14-14-14-14-14-14--|--14/15-15-15-15-15-15-15----15-15-15-15-15-15-15--|
C|---------------------------------------------------|---------------------------------------------------|


[Chorus] Guitar 2: (x2)
"I've Heard Some Heavy Lies..."
D|-------------------------------------------------|-------------------------------------------------|
A|-------------------------------------------------|-------------------------------------------------|
F|--5--5--5--5--5--5--5--5----5--5--5--5--5--5--5--|--2--2--2--2--2--2--2--2----2--2--2--2--2--2--2--|
C|--5--5--5--5--5--5--5--5----5--5--5--5--5--5--5--|--2--2--2--2--2--2--2--2----2--2--2--2--2--2--2--|
G|--3--3--3--3--3--3--3--3----3--3--3--3--3--3--3--|--0--0--0--0--0--0--0--0----0--0--0--0--0--0--0--|
C|-------------------------------------------------|-------------------------------------------------|

D|-------------------------------------------------|-------------------------------------------------|
A|-------------------------------------------------|-------------------------------------------------|
F|-------------------------------------------------|-------------------------------------------------|
C|--5--5--5--5--5--5--5--5----5--5--5--5--5--5--5--|--3--3--3--3--3--3--3--3----3--3--3--3--3--3--3--|
G|--5--5--5--5--5--5--5--5----5--5--5--5--5--5--5--|--3--3--3--3--3--3--3--3----3--3--3--3--3--3--3--|
C|--5--5--5--5--5--5--5--5----5--5--5--5--5--5--5--|--3--3--3--3--3--3--3--3----3--3--3--3--3--3--3--|

[Post-Chorus] Guitar 1:
D|----------------------------------|----------------------------------|
A|--5h6--6--6--6p5----3--3----5--5--|--5h6--6--6--6p5----8--8----5--5--|
F|--5----5--5--5------5--5----5--5--|--5----5--5--5------5--5----5--5--|
C|----------------------------------|----------------------------------|
G|----------------------------------|----------------------------------|
C|----------------------------------|----------------------------------|

[Verse] Guitar 1: (x2)
"And Here It Goes Again..."
D|----------------------------------|----------------------------------|
A|--5h6--6--6--6p5----3--3----5--5--|--5h6--6--6--6p5----8--8----5--5--|
F|--5----5--5--5------5--5----5--5--|--5----5--5--5------5--5----5--5--|
C|----------------------------------|----------------------------------|
G|----------------------------------|----------------------------------|
C|----------------------------------|----------------------------------|

D|--------------------------------|--------------------------------|
A|-10-10-10-10--------------------|-10-10-10-10--------------------|
F|--9--9--9--9--7--5--5--5--5--5--|--9--9--9--9--7--5--5--5--5--5--|
C|--7--7--7--7--7--5--5--5--5--5--|--7--7--7--7--7--5--5--5--5--5--|
G|--------------5--3--3--3--3--3--|--------------5--3--3--3--3--3--|
C|--------------------------------|--------------------------------|


[Verse] Guitar 2
"Start to twist..."
D|----------------|----------------|-------------------|-------------------|
A|----------------|----------------|-------------------|-------------------|
F|--5----5--5--5--|--5----5--5--5--|--2----------------|--2----------------|
C|--5----5--5--5--|--5----5--5--5--|--2----2--3--3--3--|--2----2--3--3--3--|
G|--3----3--3--3--|--3----3--3--3--|--0----2--3--3--3--|--0----2--3--3--3--|
C|----------------|----------------|-------2--3--3--3--|-------2--3--3--3--|

[Verse] Guitar 3
"Start to twist..."
D|--------------------------------------------------------------------------------------------------------|
A|-----8--8--8--8--8--8--8--8--8--8--8--8--8--8--8--8--8--8--8--8--8--8--8--8--8--8--8--8--8--8--8--8--8--|
F|--5-----5--5--5--5--5--5--5--5--5--5--5--5--5--5--5--5--5--5--5--5--5--5--5--5--5--5--5--5--5--5--5--5--|
C|--------------------------------------------------------------------------------------------------------|
G|--------------------------------------------------------------------------------------------------------|
C|--------------------------------------------------------------------------------------------------------|
   \/(Natural Harmonic)  
D|--5--------------------7--8--|
A|-----------------------------|
F|-----------------------------|
C|-----------------------------|
G|-----------------------------|
C|-----------------------------|



[PreChorus] Guitar 1(x2) (Listen closely to hear this part's timing)
"To The World Outside..."
D|-------------------------------|-----------------------------------|
A|--5-------8p5--------5h6p5-----|-------------------------3h5p3-----|
F|-----5---------7--5---------5--|--------------------------------5--|
C|-------------------------------|--10--7--7--7--10--5--5------------|
G|-------------------------------|-----------------------------------|
C|-------------------------------|-----------------------------------|

[PreChorus] Guitar 2
"To The World Outside..."
D|-----------------------------------|-----------------------------------|
A|-----------------------------------|-----------------------------------|
F|--5--5--5--5--5--5--5--5--5--5--5--|-----------------------------------|
C|--5--5--5--5--5--5--5--5--5--5--5--|--5--5--5--5--5--------------------|
G|--3--3--3--3--3--3--3--3--3--3--3--|--5--5--5--5--5--------------------|
C|-----------------------------------|--5--5--5--5--5--7--7--7--7--7--7--|

[Chorus] Guitar 1: (x2)
"I've Heard Some Heavy Lies..."
D|---------------------------------------------------|----------------------------------------------------|
A|---------------------------------------------------|----------------------------------------------------|
F|--17-17-17-17-17-17-17-17----17-17-17-17\16-16-16--|--16/17--17-17-17-17-17-17----17-17-17-17/19-19-19--|
C|---x--x--x--x--x--x--x--x-----x--x--x--x--x--x--x--|---x--x---x--x--x--x--x--x-----x--x--x--x--x--x--x--|
G|--15-15-15-15-15-15-15-15----15-15-15-15\14-14-14--|--14/15--15-15-15-15-15-15----15-15-15-15/17-17-17--|
C|---------------------------------------------------|----------------------------------------------------|

D|---------------------------------------------------|---------------------------------------------------|
A|---------------------------------------------------|---------------------------------------------------|
F|--19-16-16-16-16-16-16-16----16-16-16-16-16-16-16--|--16/17-17-17-17-17-17-17----17-17-17-17-17-17-17--|
C|---x--x--x--x--x--x--x--x-----x--x--x--x--x--x--x--|---x--x--x--x--x--x--x--x-----x--x--x--x--x--x--x--|
G|--17\14-14-14-14-14-14-14----14-14-14-14-14-14-14--|--14/15-15-15-15-15-15-15----15-15-15-15-15-15-15--|
C|---------------------------------------------------|---------------------------------------------------|


[Chorus] Guitar 2: (x2)
"I've Heard Some Heavy Lies..."
D|-------------------------------------------------|-------------------------------------------------|
A|-------------------------------------------------|-------------------------------------------------|
F|--5--5--5--5--5--5--5--5----5--5--5--5--5--5--5--|--2--2--2--2--2--2--2--2----2--2--2--2--2--2--2--|
C|--5--5--5--5--5--5--5--5----5--5--5--5--5--5--5--|--2--2--2--2--2--2--2--2----2--2--2--2--2--2--2--|
G|--3--3--3--3--3--3--3--3----3--3--3--3--3--3--3--|--0--0--0--0--0--0--0--0----0--0--0--0--0--0--0--|
C|-------------------------------------------------|-------------------------------------------------|

D|-------------------------------------------------|-------------------------------------------------|
A|-------------------------------------------------|-------------------------------------------------|
F|-------------------------------------------------|-------------------------------------------------|
C|--5--5--5--5--5--5--5--5----5--5--5--5--5--5--5--|--3--3--3--3--3--3--3--3----3--3--3--3--3--3--3--|
G|--5--5--5--5--5--5--5--5----5--5--5--5--5--5--5--|--3--3--3--3--3--3--3--3----3--3--3--3--3--3--3--|
C|--5--5--5--5--5--5--5--5----5--5--5--5--5--5--5--|--3--3--3--3--3--3--3--3----3--3--3--3--3--3--3--|

[Solo] Guitar 1
D|----------------------------------|----------------------------|
A|--3--3--3--5/6\5------------8-----|--------8-------------8-----|
F|------------------5----4/5-----5--|-----5-----5-------5-----5--|
C|----------------------------------|--7-------------5-----------|
G|----------------------------------|----------------------------|
C|----------------------------------|----------------------------|

[Solo] Guitar 2
D|----------------------------------------------|----------------------------------------------|
A|----------------------------------------------|----------------------------------------------|
F|--5--5--5--5--5--5--5----5--5--5--5--5--5--5--|----------------------------------------------|
C|--5--5--5--5--5--5--5----5--5--5--5--5--5--5--|--0--0--0--0--0--0--0----0--0--0--0--0--0--0--|
G|--3--3--3--3--3--3--3----3--3--3--3--3--3--3--|--0--0--0--0--0--0--0----0--0--0--0--0--0--0--|
C|----------------------------------------------|--0--0--0--0--0--0--0----0--0--0--0--0--0--0--|

D|----------------------------------------------|----------------------------------------------|
A|----------------------------------------------|----------------------------------------------|
F|----------------------------------------------|----------------------------------------------|
C|--3--3--3--3--3--3--3----3--3--3--3--3--3--3--|--3--3--3--3--3--3--3----3--3--3--3--3--3--3--|
G|--3--3--3--3--3--3--3----3--3--3--3--3--3--3--|--3--3--3--3--3--3--3----3--3--3--3--3--3--3--|
C|--3--3--3--3--3--3--3----3--3--3--3--3--3--3--|--3--3--3--3--3--3--3----3--3--3--3--3--3--3--|

[Breakdown] Guitar 2
"Theres a World Outside..."
D|-----|
A|-----|
F|--5--|
C|--5--|
G|--3--|
C|-----|

[Breakdown] Guitar 1
"Theres a World Outside..."
D|-------------|--------------------------------------------------------------|
A|--5----3--5--|--5----3--1---------------------------------------------------|
F|--5----5--5--|--5----5--0---------------------------------------------------|
C|-------------|--------------------------------------------------------------|
G|-------------|--------------------------------------------------------------|
C|-------------|--------------------------------------------------------------|


[Bridge] Guitar 1

D|--------------------------------------------------------------------------------------------------|
A|--5-----5-----5-----5----5-----5-----8-----8-----3-----3-----3-----5------5-----5-----5-----5-----|
F|-----5-----5-----5----5-----5-----5-----5-----5-----5-----5-----5-----5------5-----5-----5-----5--|
C|--------------------------------------------------------------------------------------------------|
G|--------------------------------------------------------------------------------------------------|
C|--------------------------------------------------------------------------------------------------|

C|----------------------------------------------------------------------|
D|--5-----5-----5-----5----5-----5-----8-----8-----3-----3-----3--------|
A|-----5-----5-----5----5-----5-----5-----5-----5-----5-----5-----5--5--|
F|----------------------------------------------------------------------|
C|----------------------------------------------------------------------|
G|----------------------------------------------------------------------|
C|----------------------------------------------------------------------|

[Bridge] Guitar 2

D|--------------------------------------------------------------------------------------------------|
A|--------------------------------------------------------------------------------------------------|
F|--5--5--5--5--5--5--5--5--5--5--5--5--5--5--5--5--------------------------------------------------|
C|--5--5--5--5--5--5--5--5--5--5--5--5--5--5--5--5--5--5--5--5--5--5--5--5--7--7--7--7--7--7--7--7--|
G|--3--3--3--3--3--3--3--3--3--3--3--3--3--3--3--3--5--5--5--5--5--5--5--5--7--7--7--7--7--7--7--7--|
C|--------------------------------------------------5--5--5--5--5--5--5--5--7--7--7--7--7--7--7--7--|

D|-----------------------------------------------------------------------------|
A|-----------------------------------------------------------------------------|
F|--5--5--5--5--5--5--5--5--5--5--5--5--5--5--5--5-----------------------------|
C|--5--5--5--5--5--5--5--5--5--5--5--5--5--5--5--5--5--5--5--5--5--5--5--5--7--|
G|--3--3--3--3--3--3--3--3--3--3--3--3--3--3--3--3--5--5--5--5--5--5--5--5--7--|
C|--------------------------------------------------5--5--5--5--5--5--5--5--7--|


[Chorus] Guitar 1:
"I've Heard Some Heavy Lies..."
D|---------------------------------------------------|----------------------------------------------------|
A|---------------------------------------------------|----------------------------------------------------|
F|--16/17-17-17-17-17-17-17----17-17-17-17\16-16-16--|--16/17--17-17-17-17-17-17----17-17-17-17/19-19-19--|
C|---x-x--x--x--x--x--x--x------x--x--x--x--x--x--x--|---x--x---x--x--x--x--x--x-----x--x--x--x--x--x--x--|
G|--14/15-15-15-15-15-15-15----15-15-15-15\14-14-14--|--14/15--15-15-15-15-15-15----15-15-15-15/17-17-17--|
C|---------------------------------------------------|----------------------------------------------------|

D|---------------------------------------------------|---------------------------------------------------|
A|---------------------------------------------------|---------------------------------------------------|
F|--19-16-16-16-16-16-16-16----16-16-16-16-16-16-16--|--16/17-17-17-17-17-17-17----17-17-17-17-17-17-17--|
C|---x--x--x--x--x--x--x--x-----x--x--x--x--x--x--x--|---x--x--x--x--x--x--x--x-----x--x--x--x--x--x--x--|
G|--17\14-14-14-14-14-14-14----14-14-14-14-14-14-14--|--14/15-15-15-15-15-15-15----15-15-15-15-15-15-15--|
C|---------------------------------------------------|---------------------------------------------------|

D|---------------------------------------------------|----------------------------------------------------|
A|---------------------------------------------------|----------------------------------------------------|
F|--17-17-17-17-17-17-17-17----17-17-17-17/19-19-19--|--19\17--17-17-17-17-17-17----17-17-17-17-12-12-12--|
C|---x--x--x--x--x--x--x--x-----x--x--x--x--x--x--x--|---x--x---x--x--x--x--x--x-----x--x--x--x--x--x--x--|
G|--15-15-15-15-15-15-15-15----15-15-15-15/17-17-17--|--17\15--15-15-15-15-15-15----15-15-15-15-10-10-10--|
C|---------------------------------------------------|----------------------------------------------------|

D|---------------------------------------------------|---------------------------------------------------|
A|---------------------------------------------------|---------------------------------------------------|
F|--17-16-16-16-16-16-16-16----16-16-16-16-16-16-16--|--19\17-17-17-17-17-17-17----17-17-17-17-17-17-17--|
C|---x--x--x--x--x--x--x--x-----x--x--x--x--x--x--x--|---x--x--x--x--x--x--x--x-----x--x--x--x--x--x--x--|
G|--15\14-14-14-14-14-14-14----14-14-14-14-14-14-14--|--17\15-15-15-15-15-15-15----15-15-15-15-15-15-15--|
C|---------------------------------------------------|---------------------------------------------------|


[Chorus] Guitar 2: (x2)
"I've Heard Some Heavy Lies..."
D|-------------------------------------------------|-------------------------------------------------|
A|-------------------------------------------------|-------------------------------------------------|
F|--5--5--5--5--5--5--5--5----5--5--5--5--5--5--5--|--2--2--2--2--2--2--2--2----2--2--2--2--2--2--2--|
C|--5--5--5--5--5--5--5--5----5--5--5--5--5--5--5--|--2--2--2--2--2--2--2--2----2--2--2--2--2--2--2--|
G|--3--3--3--3--3--3--3--3----3--3--3--3--3--3--3--|--0--0--0--0--0--0--0--0----0--0--0--0--0--0--0--|
C|-------------------------------------------------|-------------------------------------------------|

D|-------------------------------------------------|-------------------------------------------------|
A|-------------------------------------------------|-------------------------------------------------|
F|-------------------------------------------------|-------------------------------------------------|
C|--5--5--5--5--5--5--5--5----5--5--5--5--5--5--5--|--3--3--3--3--3--3--3--3----3--3--3--3--3--3--3--|
G|--5--5--5--5--5--5--5--5----5--5--5--5--5--5--5--|--3--3--3--3--3--3--3--3----3--3--3--3--3--3--3--|
C|--5--5--5--5--5--5--5--5----5--5--5--5--5--5--5--|--3--3--3--3--3--3--3--3----3--3--3--3--3--3--3--|

[Solo 2] Guitar 1: (x2)
D|----------------------------------|--------------------------|
A|--3--3--3--5/6\5------------8-----|-------8------------8-----|
F|------------------5----4/5-----5--|--4/5-----5----4/5-----5--|
C|----------------------------------|--------------------------|
G|----------------------------------|--------------------------|
C|----------------------------------|--------------------------|

[Solo 2] Guitar 2:
D|----------------------|--------------------|
A|----------------------|--------------------|
F|--5--5--5--5--5--5----|--2--2--2--2--2--2--|
C|--5--5--5--5--5--5----|--2--2--2--2--2--2--|
G|--3--3--3--3--3--3----|--0--0--0--0--0--0--|
C|----------------------|--------------------|

D|--------------------|--------------------------------------------------|
A|--------------------|--------------------------------------------------|
F|--------------------|--------------------------------------------------|
C|--5--5--5--5--5--5--|--3--3--3--3--3--3--3--3--3--3--3--3--3--3--3--3--|
G|--5--5--5--5--5--5--|--3--3--3--3--3--3--3--3--3--3--3--3--3--3--3--3--|
C|--5--5--5--5--5--5--|--3--3--3--3--3--3--3--3--3--3--3--3--3--3--3--3--|

[Outro]

D|------------------------|------------------------|------------------------|------------------------|
A|------------------------|------------------------|------------------------|------------------------|
F|--5----5----5--5--5--5--|--5---------------------|--5----5----5--5--5--5--|--5----5----5--5--5--5--|
C|--5----5----5--5--5--5--|--2---------------------|--5----5----5--5--5--5--|--3----3----3--3--3--3--|
G|--3----3----3--3--3--2--|--0----0----0--0--0--0--|--5----5----5--5--5--5--|--3----3----3--3--3--3--|
C|------------------------|------------------------|--5----5----5--5--5--5--|--3----3----3--3--3--3--|

____________________________________________________________________________________________________

                                     T10.   19 SEVENTY SUMTHIN'
____________________________________________________________________________________________________




Tuning: Half Step Down (D# G# C# F# A# D#)

[Verse] Guitar 1: (x3)
"Let's Start It Here..."
D#|--------------------------------------------|--------------------------------------------|
A#|--14--14----14--14--14--14--14--12--12--12--|--14--14----14--14--14--14--14--15--15--15--|
F#|--14--14----14--14--14--14--14--13--13--13--|--14--14----14--14--14--14--14--14--14--14--|
C#|---x---x-----x---x---x---x---x---x---x---x--|---x---x-----x---x---x---x---x---x---x---x--|
G#|--12--12----12--12--12--12--12--11--11--11--|--12--12----12--12--12--12--12--14--14--14--|
D#|--------------------------------------------|--------------------------------------------|

D#|----------------------------------|----------------------------------|
A#|-10-10---10-10-10-10-10--5--5--5--|--7--7----7--7--7--7--7--9--9--9--|
F#|-11-11---11-11-11-11-11--6--6--6--|--7--7----7--7--7--7--7--9--9--9--|
C#|--x--x----x--x--x--x--x--x--x--x--|--x--x----x--x--x--x--x--x--x--x--|
G#|--9--9----9--9--9--9--9--4--4--4--|--5--5----5--5--5--5--5--7--7--7--|
D#|----------------------------------|----------------------------------|

[Pre-Chorus] Guitar 1:
"They're Saying 'I Do...'"
D#|--------------------------------------------------------|
A#|--4--4----4--4--4--4--4----4--4--4--7--7----7--7--7--7--|
F#|--4--4----4--4--4--4--4----4--4--4--7--7----7--7--7--7--|
C#|--x--x----x--x--x--x--x----x--x--x--x--x----x--x--x--x--|
G#|--2--2----2--2--2--2--2----2--2--2--5--5----5--5--5--5--|
D#|--------------------------------------------------------|


[Chorus] Guitar 1: (x4)
"And Like The Seed..."
D#|---------------------------------------------------------------------------|
A#|--14--14----14--14--14-10-10---10-10-10--5--5----5--5--5--9--9----9--9--9--|
F#|--14--14----14--14--14-11-11---11-11-11--6--6----6--6--6--9--9----9--9--9--|
C#|---x---x-----x---x---x--x--x----x--x--x--x--x----x--x--x--x--x----x--x--x--|
G#|--12--12----12--12--12--9--9----9--9--9--4--4----4--4--4--7--7----7--7--7--|
D#|---------------------------------------------------------------------------|


[PostChorus] Guitar 1:
D#|--------------------------------------------|
A#|--14--14----14--14--14--14--14--12--12--12--|
F#|--14--14----14--14--14--14--14--13--13--13--|
C#|---x---x-----x---x---x---x---x---x---x---x--|
G#|--12--12----12--12--12--12--12--11--11--11--|
D#|--------------------------------------------|

[Verse] Guitar 1:(x3)
"And Now It's 1990 Sumthin'"
D#|--------------------------------------------|--------------------------------------------|
A#|--14--14----14--14--14--14--14--12--12--12--|--14--14----14--14--14--14--14--15--15--15--|
F#|--14--14----14--14--14--14--14--13--13--13--|--14--14----14--14--14--14--14--14--14--14--|
C#|---x---x-----x---x---x---x---x---x---x---x--|---x---x-----x---x---x---x---x---x---x---x--|
G#|--12--12----12--12--12--12--12--11--11--11--|--12--12----12--12--12--12--12--14--14--14--|
D#|--------------------------------------------|--------------------------------------------|

D#|----------------------------------|----------------------------------|
A#|-10-10---10-10-10-10-10--5--5--5--|--7--7----7--7--7--7--7--9--9--9--|
F#|-11-11---11-11-11-11-11--6--6--6--|--7--7----7--7--7--7--7--9--9--9--|
C#|--x--x----x--x--x--x--x--x--x--x--|--x--x----x--x--x--x--x--x--x--x--|
G#|--9--9----9--9--9--9--9--4--4--4--|--5--5----5--5--5--5--5--7--7--7--|
D#|----------------------------------|----------------------------------|


[Verse] Guitar 2:
"It's Been Hard..."
D#|----------12------|------------------|----------14--12--|-----------------|
A#|------14------14--|------14------12--|------14----------|------14--14/15--|
F#|--14--------------|--14------13------|--14--------------|--14-------------|
C#|------------------|------------------|------------------|-----------------|
G#|------------------|------------------|------------------|-----------------|
D#|------------------|------------------|------------------|-----------------|

D#|----------12------|--------------|----------12------|------|
A#|------14------14--|------14--12--|------14------14--|--14--|
F#|--14--------------|--14----------|--14--------------|--14--|
C#|------------------|--------------|------------------|------|
G#|------------------|--------------|------------------|------|
D#|------------------|--------------|------------------|------|

[Pre-Chorus] Guitar 1:
"Giving up...'"
D#|--------------------------------------------------------|
A#|--4--4----4--4--4--4--4----4--4--4--7--7----7--7--7--7--|
F#|--4--4----4--4--4--4--4----4--4--4--7--7----7--7--7--7--|
C#|--x--x----x--x--x--x--x----x--x--x--x--x----x--x--x--x--|
G#|--2--2----2--2--2--2--2----2--2--2--5--5----5--5--5--5--|
D#|--------------------------------------------------------|

[Chorus] Guitar 1: (x4)
"And Like The Seed..."
D#|---------------------------------------------------------------------------|
A#|--14--14----14--14--14-10-10---10-10-10--5--5----5--5--5--9--9----9--9--9--|
F#|--14--14----14--14--14-11-11---11-11-11--6--6----6--6--6--9--9----9--9--9--|
C#|---x---x-----x---x---x--x--x----x--x--x--x--x----x--x--x--x--x----x--x--x--|
G#|--12--12----12--12--12--9--9----9--9--9--4--4----4--4--4--7--7----7--7--7--|
D#|---------------------------------------------------------------------------|

[Chorus] Guitar 2: (x2)
"And Like The Seed..."
D#|--------------|--------------|--------------|----------|
A#|------14------|------17------|--------------|------12--|
F#|--14------14--|--14------14--|------13------|--14------|
C#|--------------|--------------|--14------14--|----------|
G#|--------------|--------------|--------------|----------|
D#|--------------|--------------|--------------|----------|

D#|--------------|------12--|------12------|--12------12--|
A#|------14------|----------|----------14--|------14------|
F#|--14------14--|--14------|--14----------|--------------|
C#|--------------|----------|--------------|--------------|
G#|--------------|----------|--------------|--------------|
D#|--------------|----------|--------------|--------------|

[Verse] Guitar 1:(x2)
"Now It's 2000 and Sumthin'"
D#|--------------------------------------------|--------------------------------------------|
A#|--14--14----14--14--14--14--14--12--12--12--|--14--14----14--14--14--14--14--15--15--15--|
F#|--14--14----14--14--14--14--14--13--13--13--|--14--14----14--14--14--14--14--14--14--14--|
C#|---x---x-----x---x---x---x---x---x---x---x--|---x---x-----x---x---x---x---x---x---x---x--|
G#|--12--12----12--12--12--12--12--11--11--11--|--12--12----12--12--12--12--12--14--14--14--|
D#|--------------------------------------------|--------------------------------------------|

D#|----------------------------------|----------------------------------|
A#|-10-10---10-10-10-10-10--5--5--5--|--7--7----7--7--7--7--7--9--9--9--|
F#|-11-11---11-11-11-11-11--6--6--6--|--7--7----7--7--7--7--7--9--9--9--|
C#|--x--x----x--x--x--x--x--x--x--x--|--x--x----x--x--x--x--x--x--x--x--|
G#|--9--9----9--9--9--9--9--4--4--4--|--5--5----5--5--5--5--5--7--7--7--|
D#|----------------------------------|----------------------------------|

[Verse] Guitar 2:(x2)
"Now It's 2000 and Sumthin'"
D#|----------|----------|----------|------------|
A#|----------|----------|----------|------------|
F#|----------|----------|----------|------------|
C#|----------|----------|----------|------------|
G#|----------|----------|----------|------------|
D#|--5----4--|--5----7--|--2----9--|--10----12--|

[Bridge] Guitar 2:(x2)
"That Day, When He Went Away..."
D#|--------------|--------------|--------------|--------------|
A#|--------------|--------------|--------------|--------------|
F#|--------------|--------------|--------------|--------------|
C#|--4--4--4--4--|--6--6--6--6--|--7--7--7--7--|--7--7--6--6--|
G#|--5--5--5--5--|--7--7--7--7--|--9--9--9--9--|--9--9--7--7--|
D#|--------------|--------------|--------------|--------------|

D#|----------------------------------------------------|
A#|----------------------------------------------------|
F#|----------------------------------------------------|
C#|--4--4--4--4--6--6--6--6--7--7--7--7--11--11--6--6--|
G#|--5--5--5--5--7--7--7--7--9--9--9--9--12--12--7--7--|
D#|----------------------------------------------------|

[Pre-Outro]
D#|----------|
A#|----------|
F#|----------|
C#|--1----7--|
G#|--2----7--|
D#|----------|


[Outro]
"Oh Mother, Mother Please Don't Cry..."
D#|--------------------------|--------------------------|---------------------------|------------------------|
A#|--------------------------|--------------------------|---------------------------|------------------------|
F#|--------------------------|--------------------------|---------------------6--6--|-7--7--7--7--7--7--9--9-|
C#|--7--7--7--7--7--7--6--6--|--7--7--7--7--7--7--9--9--|--4--4--4--4--4--4---6--6--|-7--7--7--7--7--7--9--9-|
G#|--7--7--7--7--7--7--7--7--|--7--7--7--7--7--7--9--9--|--4--4--4--4--4--4---4--4--|-5--5--5--5--5--5--7--7-|
D#|--5--5--5--5--5--5--4--4--|--5--5--5--5--5--5--7--7--|--2--2--2--2--2--2---------|------------------------|

D#|--------------------------|--------------------------|---------------------------|-------------------|
A#|--------------------------|--------------------------|---------------------------|-------------------|
F#|--------------------------|--------------------------|---------------------6--6--|-7--7--7--7--7--7--|
C#|--7--7--7--7--7--7--6--6--|--7--7--7--7--7--7--9--9--|--4--4--4--4--4--4---6--6--|-7--7--7--7--7--7--|
G#|--7--7--7--7--7--7--7--7--|--7--7--7--7--7--7--9--9--|--4--4--4--4--4--4---4--4--|-5--5--5--5--5--5--|
D#|--5--5--5--5--5--5--4--4--|--5--5--5--5--5--5--7--7--|--2--2--2--2--2--2---------|-------------------|

____________________________________________________________________________________________________

                                   T11.   WHERE DO WE GO WHEN WE GO
____________________________________________________________________________________________________


Tuning: Drop C# (C# G# C# F# A# D#)

[Opening] Xylophone:
"Pain Pain, Go Away..."
D#|---------10-----|------7--10-----|---------10-----|------7--10-----|
A#|--10------------|--10------------|--10------------|--10------------|
F#|------7------7--|-------------7--|------7------7--|-------------7--|
C#|----------------|----------------|----------------|----------------|
G#|----------------|----------------|----------------|----------------|
C#|----------------|----------------|----------------|----------------|


D#|--------10-------------10------|----------10----------------10------|--10--|
A#|--8--------------8-------------|--12----------------12--------------|--10--|
F#|-----9------9-------9------9---|------12------12--------12------12--|------|
C#|-------------------------------|------------------------------------|------|
G#|-------------------------------|------------------------------------|------|
C#|-------------------------------|------------------------------------|------|

[Intro] Guitar 1:
D#|----------------|---------------------|----------------|--------------------|
A#|----------------|---------------------|----------------|--------------------|
F#|-11-11-11/12\11-|-11-11-11---11/12\11-|-11-11-11/12\11-|-11-11-11-11/12/14--|
C#|--x--x--x--x-x--|--x--x--x----x--x-x--|--x--x--x--x-x--|--x--x--x--x--x--x--|
G#|--9--9--9/10\9--|--9--9--9----9/10\9--|--9--9--9/10\9--|--9--9--9--9/10/12--|
C#|----------------|---------------------|----------------|--------------------|

D#|--------------------------|--------------------------|--------------------------|------------------|
A#|--------------------------|--------------------------|--------------------------|------------------|
F#|--4--4--4--4--7--7--7--7--|--9--9-11-11--9--9--7--7--|--4--4--4--4--7--7--7--7--|--9----7-11/12\11-|
C#|--x--x--x--x--x--x--x--x--|--x--x--x--x--x--x--x--x--|--x--x--x--x--x--x--x--x--|--x----x--x--x-x--|
G#|--2--2--2--2--5--5--5--5--|--7--7--9--9--7--7--5--5--|--2--2--2--2--5--5--5--5--|--7----5--9/10\9--|
C#|--------------------------|--------------------------|--------------------------|------------------|

[Intro] Guitar 2:
D#|----------------|----------------|----------------|----------------|
A#|----------------|----------------|----------------|----------------|
F#|----------------|----------------|----------------|----------------|
C#|--0----0--0--0--|--0----0--0--0--|--2----2--2--2--|--5----5--5--5--|
G#|--0----0--0--0--|--0----0--0--0--|--2----2--2--2--|--5----5--5--5--|
C#|--0----0--0--0--|--0----0--0--0--|--2----2--2--2--|--5----5--5--5--|


[Verse] Guitar 2: (x2)
"I Guess We'll Never Know..."
D#|---------------------|------------------|------------------|------------------|
A#|---------------------|------------------|------------------|------------------|
F#|---------------------|------------------|------------------|------------------|
C#|--0--0--0---0--0--0--|--0--0--0---0--5--|--0--0---0--0--0--|--0--0--0---0--0--|
G#|--0--0--0---0--0--0--|--0--0--0---0--5--|--0--0---0--0--0--|--0--0--0---0--0--|
C#|--0--0--0---0--0--0--|--0--0--0---0--5--|--0--0---0--0--0--|--0--0--0---0--0--|

D#|------------------|---------------------|------------------------------|
A#|------------------|---------------------|------------------------------|
F#|------------------|---------------------|--4--4--4--4--2---2--2--2--2--|
C#|--2--2---2--2--2--|--2--2--2---2--2--2--|--4--4--4--4--2---2--2--2--2--|
G#|--2--2---2--2--2--|--2--2--2---2--2--2--|--2--2--2--2--0---0--0--0--0--|
C#|--2--2---2--2--2--|--2--2--2---2--2--2--|------------------------------|

[Verse] Guitar 1:
"Well If That Is That..."
D#|------------------------------------------------------|--------------------------------------------|
A#|------------------------------------------------------|--------------------------------------------|
F#|-11/12\11-14-11-11-11-11-11-11-11-11-11-11-11/12--12--|--14-11-11-11-11-11-11-11-11-11-11-11/12\11-|
C#|--x--x-x---x--x--x--x--x--x--x--x--x--x--x--x--x---x--|---x--x--x--x--x--x--x--x--x--x--x--x--x-x--|
G#|--9/10\9--12--9--9--9--9--9--9--9--9--9--9--9/10--10--|--12--9--9--9--9--9--9--9--9--9--9--9/10\9--|
C#|------------------------------------------------------|--------------------------------------------|


D#|--------------------------------------------------|--------------------------------------------|
A#|--------------------------------------------------|--------------------------------------------|
F#|--4--4--4--4--4--4--4--4--4--4--4--4--4--4--4--4--|--4--4--4--4--4--4--7--7--7--7--7--7--7--7--|
C#|--x--x--x--x--x--x--x--x--x--x--x--x--x--x--x--x--|--x--x--x--x--x--x--x--x--x--x--x--x--x--x--|
G#|--2--2--2--2--2--2--2--2--2--2--2--2--2--2--2--2--|--2--2--2--2--2--2--5--5--5--5--5--5--5--5--|
C#|--------------------------------------------------|--------------------------------------------|

[PreChorus] Guitar 2
"Pain, Pain, Go Away..."
D#|--------------------------------------------------|--------------------------------------------------|
A#|--------------------------------------------------|--------------------------------------------------|
F#|--7--7--7--7--7--7--7--7--7--7--7--7--7--7--7--7--|--7--7--7--7--7--7--7--7--7--7--7--7--7--7--7--7--|
C#|--0--0--0--0--0--0--0--0--0--0--0--0--0--0--0--0--|--0--0--0--0--0--0--0--0--0--0--0--0--0--0--0--0--|
G#|--5--5--5--5--5--5--5--5--5--5--5--5--5--5--5--5--|--5--5--5--5--5--5--5--5--5--5--5--5--5--5--5--5--|
C#|--------------------------------------------------|--------------------------------------------------|

D#|--------------------------------------------------|-----------------------------|
A#|--------------------------------------------------|--3--3--3--3--3--3--3--3--3--|
F#|--7--7--7--7--7--7--7--7--7--7--7--7--7--7--7--7--|--4--4--4--4--4--4--4--4--4--|
C#|--5--5--5--5--5--5--5--5--5--5--5--5--5--5--5--5--|--x--x--x--x--x--x--x--x--x--|
G#|--------------------------------------------------|--2--2--2--2--2--2--2--2--2--|
C#|--------------------------------------------------|-----------------------------|

[Chorus] Guitar 2:
"And I Can't Put My Faith..."
D#|------------------------------------------|------------------------------------------|
A#|------------------------------------------|------------------------------------------|
F#|------------------------------------------|------------------------------------------|
C#|--0---0---0--0--0--0---0--0---0--0--0--0--|--0---0---0--0--0--0---0--0---0--0--0--0--|
G#|--0---0---0--0--0--0---0--0---0--0--0--0--|--0---0---0--0--0--0---0--0---0--0--0--0--|
C#|--0---0---0--0--0--0---0--0---0--0--0--0--|--0---0---0--0--0--0---0--0---0--0--0--0--|

D#|------------------------------------------|------------------------------------------|
A#|------------------------------------------|------------------------------------------|
F#|------------------------------------------|------------------------------------------|
C#|--2---2---2--2--2--2---2--2---2--2--2--2--|--5---5---5--5--5--5---5--5---5--5--5--5--|
G#|--2---2---2--2--2--2---2--2---2--2--2--2--|--5---5---5--5--5--5---5--5---5--5--5--5--|
C#|--2---2---2--2--2--2---2--2---2--2--2--2--|--5---5---5--5--5--5---5--5---5--5--5--5--|

[Chorus] Guitar 1:
"And I Can't Put My Faith..."
D#|------------------------------------------|------------------------------------------|
A#|------------------------------------------|------------------------------------------|
F#|-11--11--11-11-11-11--11-11--11-11-11-11--|-11--11--11-11-11-11--11-11--11-11-11-11--|
C#|--x---x---x--x--x--x---x--x---x--x--x--x--|--x---x---x--x--x--x---x--x---x--x--x--x--|
G#|--9---9---9--9--9--9---9--9---9--9--9--9--|--9---9---9--9--9--9---9--9---9--9--9--9--|
C#|------------------------------------------|------------------------------------------|

D#|------------------------------------------|------------------------------------------|
A#|------------------------------------------|------------------------------------------|
F#|--4---4---4--4--4--4---4--4---4--4--4--4--|--7---7---7--7--7--7---7--7---7--7--7--7--|
C#|--x---x---x--x--x--x---x--x---x--x--x--x--|--x---x---x--x--x--x---x--x---x--x--x--x--|
G#|--2---2---2--2--2--2---2--2---2--2--2--2--|--5---5---5--5--5--5---5--5---5--5--5--5--|
C#|------------------------------------------|------------------------------------------|

[PostChorus]: Guitar
D#|----------------|
A#|----------------|
F#|-11-11-11/12\11-|
C#|--x--x--x--x-x--|
G#|--9--9--9/10\9--|
C#|----------------|(x4)

(Guitar Silence)

[Verse] Guitar 2:
"I Don't Think It's Worth..."
D#|------------------------------|
A#|------------------------------|
F#|--4--4--4--4--2---2--2--2--2--|
C#|--4--4--4--4--2---2--2--2--2--|
G#|--2--2--2--2--0---0--0--0--0--|
C#|------------------------------|

D#|---------------------|------------------|------------------|------------------|
A#|---------------------|------------------|------------------|------------------|
F#|---------------------|------------------|------------------|------------------|
C#|--0--0--0---0--0--0--|--0--0--0---0--5--|--0--0---0--0--0--|--0--0--0---0--0--|
G#|--0--0--0---0--0--0--|--0--0--0---0--5--|--0--0---0--0--0--|--0--0--0---0--0--|
C#|--0--0--0---0--0--0--|--0--0--0---0--5--|--0--0---0--0--0--|--0--0--0---0--0--|

D#|------------------|---------------------|------------------------------|
A#|------------------|---------------------|------------------------------|
F#|------------------|---------------------|--4--4--4--4--2---2--2--2--2--|
C#|--2--2---2--2--2--|--2--2--2---2--2--2--|--4--4--4--4--2---2--2--2--2--|
G#|--2--2---2--2--2--|--2--2--2---2--2--2--|--2--2--2--2--0---0--0--0--0--|
C#|--2--2---2--2--2--|--2--2--2---2--2--2--|------------------------------|

[Verse] Guitar 1:
"But On The Other Hand..."
D#|------------------------------------------------------|--------------------------------------------|
A#|------------------------------------------------------|--------------------------------------------|
F#|-11/12\11-14-11-11-11-11-11-11-11-11-11-11-11/12--12--|--14-11-11-11-11-11-11-11-11-11-11-11/12\11-|
C#|--x--x-x---x--x--x--x--x--x--x--x--x--x--x--x--x---x--|---x--x--x--x--x--x--x--x--x--x--x--x--x-x--|
G#|--9/10\9--12--9--9--9--9--9--9--9--9--9--9--9/10--10--|--12--9--9--9--9--9--9--9--9--9--9--9/10\9--|
C#|------------------------------------------------------|--------------------------------------------|


D#|--------------------------------------------------|--------------------------------------------|
A#|--------------------------------------------------|--------------------------------------------|
F#|--4--4--4--4--4--4--4--4--4--4--4--4--4--4--4--4--|--4--4--4--4--4--4--7--7--7--7--7--7--7--7--|
C#|--x--x--x--x--x--x--x--x--x--x--x--x--x--x--x--x--|--x--x--x--x--x--x--x--x--x--x--x--x--x--x--|
G#|--2--2--2--2--2--2--2--2--2--2--2--2--2--2--2--2--|--2--2--2--2--2--2--5--5--5--5--5--5--5--5--|
C#|--------------------------------------------------|--------------------------------------------|

[PreChorus] Guitar 2
"Pain, Pain, Go Away..."
D#|--------------------------------------------------|--------------------------------------------------|
A#|--------------------------------------------------|--------------------------------------------------|
F#|--7--7--7--7--7--7--7--7--7--7--7--7--7--7--7--7--|--7--7--7--7--7--7--7--7--7--7--7--7--7--7--7--7--|
C#|--0--0--0--0--0--0--0--0--0--0--0--0--0--0--0--0--|--0--0--0--0--0--0--0--0--0--0--0--0--0--0--0--0--|
G#|--5--5--5--5--5--5--5--5--5--5--5--5--5--5--5--5--|--5--5--5--5--5--5--5--5--5--5--5--5--5--5--5--5--|
C#|--------------------------------------------------|--------------------------------------------------|

D#|--------------------------------------------------|-----------------------------|
A#|--------------------------------------------------|--3--3--3--3--3--3--3--3--3--|
F#|--7--7--7--7--7--7--7--7--7--7--7--7--7--7--7--7--|--4--4--4--4--4--4--4--4--4--|
C#|--5--5--5--5--5--5--5--5--5--5--5--5--5--5--5--5--|--x--x--x--x--x--x--x--x--x--|
G#|--------------------------------------------------|--2--2--2--2--2--2--2--2--2--|
C#|--------------------------------------------------|-----------------------------|

[Chorus] Guitar 2:
"And I Can't Put My Faith..."
D#|------------------------------------------|------------------------------------------|
A#|------------------------------------------|------------------------------------------|
F#|------------------------------------------|------------------------------------------|
C#|--0---0---0--0--0--0---0--0---0--0--0--0--|--0---0---0--0--0--0---0--0---0--0--0--0--|
G#|--0---0---0--0--0--0---0--0---0--0--0--0--|--0---0---0--0--0--0---0--0---0--0--0--0--|
C#|--0---0---0--0--0--0---0--0---0--0--0--0--|--0---0---0--0--0--0---0--0---0--0--0--0--|

D#|------------------------------------------|------------------------------------------|
A#|------------------------------------------|------------------------------------------|
F#|------------------------------------------|------------------------------------------|
C#|--2---2---2--2--2--2---2--2---2--2--2--2--|--5---5---5--5--5--5---5--5---5--5--5--5--|
G#|--2---2---2--2--2--2---2--2---2--2--2--2--|--5---5---5--5--5--5---5--5---5--5--5--5--|
C#|--2---2---2--2--2--2---2--2---2--2--2--2--|--5---5---5--5--5--5---5--5---5--5--5--5--|

[Chorus] Guitar 1:
"And I Can't Put My Faith..."
D#|------------------------------------------|------------------------------------------|
A#|------------------------------------------|------------------------------------------|
F#|-11--11--11-11-11-11--11-11--11-11-11-11--|-11--11--11-11-11-11--11-11--11-11-11-11--|
C#|--x---x---x--x--x--x---x--x---x--x--x--x--|--x---x---x--x--x--x---x--x---x--x--x--x--|
G#|--9---9---9--9--9--9---9--9---9--9--9--9--|--9---9---9--9--9--9---9--9---9--9--9--9--|
C#|------------------------------------------|------------------------------------------|

D#|------------------------------------------|------------------------------------------|
A#|------------------------------------------|------------------------------------------|
F#|--4---4---4--4--4--4---4--4---4--4--4--4--|--7---7---7--7--7--7---7--7---7--7--7--7--|
C#|--x---x---x--x--x--x---x--x---x--x--x--x--|--x---x---x--x--x--x---x--x---x--x--x--x--|
G#|--2---2---2--2--2--2---2--2---2--2--2--2--|--5---5---5--5--5--5---5--5---5--5--5--5--|
C#|------------------------------------------|------------------------------------------|

[PreBridge] Guitar 1: (x2"
"I Saw It All Flash And Pass By..."
D#|----------------|---------------------|----------------|--------------------|
A#|----------------|---------------------|----------------|--------------------|
F#|-11-11-11/12\11-|-11-11-11---11/12\11-|-11-11-11/12\11-|-11-11-11-11/12/14--|
C#|--x--x--x--x-x--|--x--x--x----x--x-x--|--x--x--x--x-x--|--x--x--x--x--x--x--|
G#|--9--9--9/10\9--|--9--9--9----9/10\9--|--9--9--9/10\9--|--9--9--9--9/10/12--|
C#|----------------|---------------------|----------------|--------------------|

D#|--------------------------|------------------------------|
A#|--------------------------|------------------------------|
F#|--9--9--9--9--9--9--9--9--|--9--9--9--9--16--16--16--16--|
C#|--x--x--x--x--x--x--x--x--|--x--x--x--x---x---x---x---x--|
G#|--7--7--7--7--7--7--7--7--|--7--7--7--7--14--14--14--14--|
C#|--------------------------|------------------------------|

D#|----------------------------------|------------------------------|
A#|----------------------------------|------------------------------|
F#|--12--12--12--12--12--12--12--12--|--11-11-11-11-15--15--15--15--|
C#|---x---x---x---x---x---x---x---x--|--x--x--x--x---x---x---x---x--|
G#|--10--10--10--10--10--10--10--10--|--9--9--9--9--13--13--13--13--|
C#|----------------------------------|------------------------------|


[PreBridge] Guitar 1: (x2)
"I Saw It All Flash And Pass By..."
D#|----------------|----------------|--------------------------------------------------|
A#|----------------|----------------|--------------------------------------------------|
F#|--4----4--4--4--|--4----4--4--4--|--------------------------------------------------|
C#|--4----4--4--4--|--4----4--4--4--|--2--2--2--2--2--2--2--2--2--2--2--2--2--2--4--4--|
G#|--2----2--2--2--|--2----2--2--2--|--2--2--2--2--2--2--2--2--2--2--2--2--2--2--4--4--|
C#|----------------|----------------|--2--2--2--2--2--2--2--2--2--2--2--2--2--2--4--4--|

D#|--------------------------------------------------|
A#|--------------------------------------------------|
F#|--------------------------------------------------|
C#|--5--5--5--5--5--5--5--5--5--5--5--5--7--7--7--7--|
G#|--5--5--5--5--5--5--5--5--5--5--5--5--7--7--7--7--|
C#|--5--5--5--5--5--5--5--5--5--5--5--5--7--7--7--7--|

[Outro] Guitar 1: (x2)
"I'm Just Passing By..."
D#|----------------------------------------|-------------------------|
A#|----------------------------------------|-------------------------|
F#|----------------------------------------|-------------------------|
C#|--0--0--0--7/9\4p0h2\4p0----------------|--0--0--0--7--7--7--2/4--|
G#|--------------------------4p0--4h5p4p0--|-------------------------|
F#|----------------------------------------|------------------------=|


D#|----------------------------------------|-------------------------|
A#|----------------------------------------|-------------------------|
F#|----------------------------------------|-------------------------|
C#|--0--0--0--7/9\4p0h2\4p0----------------|--0--0--0--7--7--7--7\2--|
G#|--------------------------4p0--4h5p4p0--|-------------------------|
F#|----------------------------------------|-------------------------|

[Main Riff] Guitar 1:
D#|----------------|---------------------|----------------|--------------------|
A#|----------------|---------------------|----------------|--------------------|
F#|-11-11-11/12\11-|-11-11-11---11/12\11-|-11-11-11/12\11-|-11-11-11-11/12/14--|
C#|--x--x--x--x-x--|--x--x--x----x--x-x--|--x--x--x--x-x--|--x--x--x--x--x--x--|
G#|--9--9--9/10\9--|--9--9--9----9/10\9--|--9--9--9/10\9--|--9--9--9--9/10/12--|
C#|----------------|---------------------|----------------|--------------------|

D#|--------------------------|--------------------------|--------------------------|------------------|
A#|--------------------------|--------------------------|--------------------------|------------------|
F#|--4--4--4--4--7--7--7--7--|--9--9-11-11--9--9--7--7--|--4--4--4--4--7--7--7--7--|--9----7-11/12\11-|
C#|--x--x--x--x--x--x--x--x--|--x--x--x--x--x--x--x--x--|--x--x--x--x--x--x--x--x--|--x----x--x--x-x--|
G#|--2--2--2--2--5--5--5--5--|--7--7--9--9--7--7--5--5--|--2--2--2--2--5--5--5--5--|--7----5--9/10\9--|
C#|--------------------------|--------------------------|--------------------------|------------------|

[Main Riff] Guitar 2:
D#|----------------|----------------|-----------------------------------|-----------------------------------|
A#|----------------|----------------|-----------------------------------|-----------------------------------|
F#|----------------|----------------|-----------------------------------|-----------------------------------|
C#|--0----0--0--0--|--0----0--0--0--|--2-2-2-2-2-2-2-2-2-2-2-2-2-2-2-2--|--5-5-5-5-5-5-5-5-5-5-5-5-5-5-5-5--|
G#|--0----0--0--0--|--0----0--0--0--|--2-2-2-2-2-2-2-2-2-2-2-2-2-2-2-2--|--5-5-5-5-5-5-5-5-5-5-5-5-5-5-5-5--|
C#|--0----0--0--0--|--0----0--0--0--|--2-2-2-2-2-2-2-2-2-2-2-2-2-2-2-2--|--5-5-5-5-5-5-5-5-5-5-5-5-5-5-5-5--|

[Pre-Chourus] Guitar 2:
"I Just Wanna Get One Up..."
D#|--------------|--------------|--------------|--------------|
A#|--------------|--------------|--------------|--------------|
F#|--------------|--------------|--------------|--------------|
C#|--2--2--2--2--|--2--2--2--2--|--5--5--5--5--|--5--5--5--5--|
G#|--2--2--2--2--|--2--2--2--2--|--5--5--5--5--|--5--5--5--5--|
C#|--2--2--2--2--|--2--2--2--2--|--5--5--5--5--|--5--5--5--5--|

[Pre-Chourus] Guitar 1:
"I Just Wanna Get One Up..."
D#|--------------|------------------|------------------|------|
A#|--------------|------------------|------------------|------|
F#|--9--9-11-11--|--12--12--14--14--|--16--16--18--18--|--19--|
C#|--x--x--x--x--|---x---x---x---x--|---x---x---x---x--|---x--|
G#|--7--7--9--9--|--10--10--12--12--|--14--14--16--16--|--17--|
C#|--------------|------------------|------------------|------|

[Chorus] Guitar 2:
"And I Can't Put My Faith..."
D#|------------------------------------------|------------------------------------------|
A#|------------------------------------------|------------------------------------------|
F#|------------------------------------------|------------------------------------------|
C#|--0---0---0--0--0--0---0--0---0--0--0--0--|--0---0---0--0--0--0---0--0---0--0--0--0--|
G#|--0---0---0--0--0--0---0--0---0--0--0--0--|--0---0---0--0--0--0---0--0---0--0--0--0--|
C#|--0---0---0--0--0--0---0--0---0--0--0--0--|--0---0---0--0--0--0---0--0---0--0--0--0--|

D#|------------------------------------------|------------------------------------------|
A#|------------------------------------------|------------------------------------------|
F#|------------------------------------------|------------------------------------------|
C#|--2---2---2--2--2--2---2--2---2--2--2--2--|--5---5---5--5--5--5---5--5---5--5--5--5--|
G#|--2---2---2--2--2--2---2--2---2--2--2--2--|--5---5---5--5--5--5---5--5---5--5--5--5--|
C#|--2---2---2--2--2--2---2--2---2--2--2--2--|--5---5---5--5--5--5---5--5---5--5--5--5--|

[Chorus] Guitar 1:
"And I Can't Put My Faith..."
D#|------------------------------------------|------------------------------------------|
A#|------------------------------------------|------------------------------------------|
F#|-11--11--11-11-11-11--11-11--11-11-11-11--|-11--11--11-11-11-11--11-11--11-11-11-11--|
C#|--x---x---x--x--x--x---x--x---x--x--x--x--|--x---x---x--x--x--x---x--x---x--x--x--x--|
G#|--9---9---9--9--9--9---9--9---9--9--9--9--|--9---9---9--9--9--9---9--9---9--9--9--9--|
C#|------------------------------------------|------------------------------------------|

D#|------------------------------------------|------------------------------------------|
A#|------------------------------------------|------------------------------------------|
F#|--4---4---4--4--4--4---4--4---4--4--4--4--|--7---7---7--7--7--7---7--7---7--7--7--7--|
C#|--x---x---x--x--x--x---x--x---x--x--x--x--|--x---x---x--x--x--x---x--x---x--x--x--x--|
G#|--2---2---2--2--2--2---2--2---2--2--2--2--|--5---5---5--5--5--5---5--5---5--5--5--5--|
C#|------------------------------------------|------------------------------------------|

[Main Riff] Guitar 1:
D#|----------------|---------------------|----------------|--------------------|
A#|----------------|---------------------|----------------|--------------------|
F#|-11-11-11/12\11-|-11-11-11---11/12\11-|-11-11-11/12\11-|-11-11-11-11/12/14--|
C#|--x--x--x--x-x--|--x--x--x----x--x-x--|--x--x--x--x-x--|--x--x--x--x--x--x--|
G#|--9--9--9/10\9--|--9--9--9----9/10\9--|--9--9--9/10\9--|--9--9--9--9/10/12--|
C#|----------------|---------------------|----------------|--------------------|

D#|--------------------------|--------------------------|--------------------------|------------------|
A#|--------------------------|--------------------------|--------------------------|------------------|
F#|--4--4--4--4--7--7--7--7--|--9--9-11-11--9--9--7--7--|--4--4--4--4--7--7--7--7--|--9----7-11/12\11-|
C#|--x--x--x--x--x--x--x--x--|--x--x--x--x--x--x--x--x--|--x--x--x--x--x--x--x--x--|--x----x--x--x-x--|
G#|--2--2--2--2--5--5--5--5--|--7--7--9--9--7--7--5--5--|--2--2--2--2--5--5--5--5--|--7----5--9/10\9--|
C#|--------------------------|--------------------------|--------------------------|------------------|

[Main Riff] Guitar 2:
D#|----------------|----------------|-----------------------------------|-----------------------------------|
A#|----------------|----------------|-----------------------------------|-----------------------------------|
F#|----------------|----------------|-----------------------------------|-----------------------------------|
C#|--0----0--0--0--|--0----0--0--0--|--2-2-2-2-2-2-2-2-2-2-2-2-2-2-2-2--|--5-5-5-5-5-5-5-5-5-5-5-5-5-5-5-5--|
G#|--0----0--0--0--|--0----0--0--0--|--2-2-2-2-2-2-2-2-2-2-2-2-2-2-2-2--|--5-5-5-5-5-5-5-5-5-5-5-5-5-5-5-5--|
C#|--0----0--0--0--|--0----0--0--0--|--2-2-2-2-2-2-2-2-2-2-2-2-2-2-2-2--|--5-5-5-5-5-5-5-5-5-5-5-5-5-5-5-5--|

____________________________________________________________________________________________________

                                   T12. BEAUTIFUL MADNESS
____________________________________________________________________________________________________

Tuning: Drop C# (C# G# C# F# A# D#)

[Intro] Guitar 1
D#|---------------------------------------------|----------------------------------------------|
A#|--10--10--9--10--10------10--10--12--12--12--|--14--14--12--14--14------14--14--15--15--15--|
F#|---9---9--9----------11----------11--11--11--|--14--14--14----------14----------14--14--14--|
C#|---------------------------------------------|----------------------------------------------|
G#|---------------------------------------------|----------------------------------------------|
C#|---------------------------------------------|----------------------------------------------|

D#|---------------------------------------------|------------------------------------------------------|
A#|--10--10--9--10--10------10--10--12--12--12--|--14--14--14--12--12--12--14--14--15--15--15--15--15--|
F#|---9---9--9----------11----------11--11--11--|--14--14--14--14--14--14--14--14--14--14--14--14--14--|
C#|---------------------------------------------|------------------------------------------------------|
G#|---------------------------------------------|------------------------------------------------------|
C#|---------------------------------------------|------------------------------------------------------|

[Intro] Guitar 2
D#|------------------------------------------|
A#|------------------------------------------|
F#|------------------------------------------|
C#|--0--0--0----2--2--2--7--7--7----6--6--6--|
G#|--0--0--0----2--2--2--7--7--7----7--7--7--|
C#|--0--0--0----2--2--2--7--7--7----6--6--6--|

D#|----------------------------------------------------------|
A#|----------------------------------------------------------|
F#|----------------------------------------------------------|
C#|--0--0--0----2--2--2--4--4--4--4--4--4--4--2--2--2--2--2--|
G#|--0--0--0----2--2--2--4--4--4--4--4--4--4--2--2--2--2--2--|
C#|--0--0--0----2--2--2--4--4--4--4--4--4--4--2--2--2--2--2--|
                          

[Verse] Guitar 1:
"We Can't Go Back..."
D#|-----------------------------------------|------------------------------------------|
A#|--10--10--9--10--10--10--10--12--12--12--|--14--14--12--14--14--14--14--15--15--15--|
F#|---9---9--9---9---9---9---9---9---9---9--|--14--14--14--14--14--14--14--14--14--14--|
C#|-----------------------------------------|------------------------------------------|
G#|-----------------------------------------|------------------------------------------|
C#|-----------------------------------------|------------------------------------------|

D#|-----------------------------------------|------------------------------------------|
A#|--10--10--9--10--10--10--10--12--12--12--|--14--14--12--14--14------15--14--15--15--|
F#|---9---9--9---9---9---9---9---9---9---9--|--14--14--14--14--14--14------------------|
C#|-----------------------------------------|------------------------------------------|
G#|-----------------------------------------|------------------------------------------|
C#|-----------------------------------------|------------------------------------------|

[Verse] Guitar 2:
"We Can't Go Back..."
D#|------------------|--------------------|------------------|--------------------|
A#|------------------|--------------------|------------------|--------------------|
F#|------------------|--------------------|------------------|--------------------|
C#|--0--0---0--0--0--|--0--0--0--2--2--2--|--7--7---7--7--7--|--7--7--7--6--6--6--|
G#|--0--0---0--0--0--|--0--0--0--2--2--2--|--7--7---7--7--7--|--7--7--7--7--7--7--|
C#|--0--0---0--0--0--|--0--0--0--2--2--2--|--7--7---7--7--7--|--7--7--7--6--6--6--|

D#|------------------|--------------------|------------------|------------------|
A#|------------------|--------------------|------------------|------------------|
F#|------------------|--------------------|------------------|------------------|
C#|--0--0---0--0--0--|--0--0--0--2--2--2--|--4--4---4--4--4--|--2--2---2--2--2--|
G#|--0--0---0--0--0--|--0--0--0--2--2--2--|--4--4---4--4--4--|--2--2---2--2--2--|
C#|--0--0---0--0--0--|--0--0--0--2--2--2--|--4--4---4--4--4--|--2--2---2--2--2--|

[Pre-Chorus] Guitar 1:
"Take Me Back..."
D#|------------|------------------|----------------------|----------------------|
A#|------------|------------------|----------------------|----------------------|
F#|--11-11-11--|--14--14--13--14--|--18--18--18--16--16--|--19--19--16--16--16--|
C#|---x--x--x--|---x---x---x---x--|---x---x---x---x---x--|---x---x---x---x---x--|
G#|---9--9--9--|--12--12--11--12--|--16--16--16--14--14--|--17--17--14--14--14--|
C#|------------|------------------|----------------------|----------------------|(x2)

[Pre-Chorus] Guitar 2:
"Take Me Back..."
D#|-----------|--------------------|------------------|------------------|
A#|-----------|--------------------|------------------|------------------|
F#|-----------|--------------------|------------------|------------------|
C#|--0--0--0--|--0--0--0--2--2--2--|--7--7---7--7--7--|--7--7---6--6--6--|
G#|--0--0--0--|--0--0--0--2--2--2--|--7--7---7--7--7--|--7--7---7--7--7--|
C#|--0--0--0--|--0--0--0--2--2--2--|--7--7---7--7--7--|--7--7---6--6--6--|


D#|-----------|--------------------|------------------|------------------|
A#|-----------|--------------------|------------------|------------------|
F#|-----------|--------------------|------------------|------------------|
C#|--0--0--0--|--0--0--0--2--2--2--|--4--4---4--4--4--|--2--2---2--2--2--|
G#|--0--0--0--|--0--0--0--2--2--2--|--4--4---4--4--4--|--2--2---2--2--2--|
C#|--0--0--0--|--0--0--0--2--2--2--|--4--4---4--4--4--|--2--2---2--2--2--|

[Break] Guitar 1:
"Just Slow Down"
D#|-------------|
A#|--7---10--9--|
F#|--x----x--x--|
C#|--x----x--x--|
G#|--5----9--7--|
C#|-------------|

[Chorus] Guitar 1:
"Say Something Sweet..."
D#|---------------9---------|-------------------------|------------------|--------------------|
A#|--10-----9-----------10--|--9-----10-----12/14\10--|--7--7--7/10\7-7--|--7--7--9--------7--|
F#|------9-----9-----9------|-----9------9------------|------------------|-----------9--9-----|
G#|-------------------------|-------------------------|------------------|--------------------|
G#|-------------------------|-------------------------|------------------|--------------------|
C#|-------------------------|-------------------------|------------------|--------------------|(x2)

D#|----------9-----9--|--7--9--10------9---|------------------------------|---------------------------|
A#|--10--12-----------|------------10------|----------10----------10------|--10-----------9-----------|
F#|-------------9-----|--------------------|--11--11------11--11------11--|------9--9--9-----9--9--9--|
C#|-------------------|--------------------|------------------------------|---------------------------|
G#|-------------------|--------------------|------------------------------|---------------------------|
C#|-------------------|--------------------|------------------------------|---------------------------|

D#|---------------------------------------7\--|
A#|--7--7---7--7--7--7---7--10-------9--------|
F#|-----------------------------9-------------|
C#|-------------------------------------------|
G#|-------------------------------------------|
C#|-------------------------------------------|

[Chorus]
"Say Something Sweet..."
D#|----------------------------|-----------------------------------|
A#|----------------------------|-----------------------------------|
F#|----------------------------|-----------------------------------|
C#|--7--7--x--x--2p0--2--x--x--|--0--0--x--x--4--4--4--4--4--2--2--|
G#|--7--7--x--x--2p0--2--x--x--|--0--0--x--x--4--4--4--4--4--2--2--|
C#|--7--7--x--x--2p0--2--x--x--|--0--0--x--x--4--4--4--4--4--2--2--|

D#|----------------------------|---------------------------------|
A#|----------------------------|---------------------------------|
F#|----------------------------|---------------------------------|
C#|--7--7--x--x--2p0--2--x--x--|--0--0--x--x--4--4--4--4---6--6--|
G#|--7--7--x--x--2p0--2--x--x--|--0--0--x--x--4--4--4--4---7--7--|
C#|--7--7--x--x--2p0--2--x--x--|--0--0--x--x--4--4--4--4---6--6--|

D#|----------------------------|----------------------------------|
A#|----------------------------|----------------------------------|
F#|----------------------------|----------------------------------|
C#|--7--7--x--x--2p0--2--x--x--|--0--0--x--x--4--4--4--4----2--2--|
G#|--7--7--x--x--2p0--2--x--x--|--0--0--x--x--4--4--4--4----2--2--|
C#|--7--7--x--x--2p0--2--x--x--|--0--0--x--x--4--4--4--4----2--2--|

D#|-----------------------|-------------------------|
A#|-----------------------|-------------------------|
F#|-----------------------|-------------------------|
C#|--0--0--0--0--0--0--0--|--4--2--2---2--2--2---2--|
G#|--0--0--0--0--0--0--0--|--4--2--2---2--2--2---2--|
C#|--0--0--0--0--0--0--0--|--4--2--2---2--2--2---2--|

[PostChorus] Guitar 1:
D#|--------------------------------------------|------------------------------------------|
A#|--10--10--9--10--10--9--10--10--12--12--12--|--14--14--12--14--14--14--14--15--15--15--|
F#|---9---9--9---9---9--9---9---9---9---9---9--|--14--14--14--14--14--14--14--14--14--14--|
C#|--------------------------------------------|------------------------------------------|
G#|--------------------------------------------|------------------------------------------|
C#|--------------------------------------------|------------------------------------------|

D#|-----------------------------------------|------------------------------------------|
A#|--10--10--9--10--10--10--10--12--12--12--|--14--14--12--14--14------15--14--15--15--|
F#|---9---9--9---9---9---9---9---9---9---9--|--14--14--14--14--14--14------------------|
C#|-----------------------------------------|------------------------------------------|
G#|-----------------------------------------|------------------------------------------|
C#|-----------------------------------------|------------------------------------------|

[PostChorus] Guitar 2:
D#|------------------|--------------------|------------------|--------------------|
A#|------------------|--------------------|------------------|--------------------|
F#|------------------|--------------------|------------------|--------------------|
C#|--0--0---0--0--0--|--0--0--0--2--2--2--|--7--7---7--7--7--|--7--7--7--6--6--6--|
G#|--0--0---0--0--0--|--0--0--0--2--2--2--|--7--7---7--7--7--|--7--7--7--7--7--7--|
C#|--0--0---0--0--0--|--0--0--0--2--2--2--|--7--7---7--7--7--|--7--7--7--6--6--6--|

D#|------------------|--------------------|------------------|------------------|
A#|------------------|--------------------|------------------|------------------|
F#|------------------|--------------------|------------------|------------------|
C#|--0--0---0--0--0--|--0--0--0--2--2--2--|--4--4---4--4--4--|--2--2---2--2--2--|
G#|--0--0---0--0--0--|--0--0--0--2--2--2--|--4--4---4--4--4--|--2--2---2--2--2--|
C#|--0--0---0--0--0--|--0--0--0--2--2--2--|--4--4---4--4--4--|--2--2---2--2--2--|


[Verse 2] Guitar 1:
"I've Come Too Far..."
D#|------------------------------|---------------------------|
A#|----------10------9h10p9------|----------10------9/10/12--|
F#|--11--11------11----------11--|--11--11------11-----------|
C#|------------------------------|---------------------------|
G#|------------------------------|---------------------------|
C#|------------------------------|---------------------------|

D#|--------------------------|----------------------------|
A#|--------10-----9h10p9-----|--------10-----12/14\12\10--|
F#|--9--9------9----------9--|--9--9------9---------------|
C#|--------------------------|----------------------------|
G#|--------------------------|----------------------------|
C#|--------------------------|----------------------------|

D#|------------------------------|---------------------------|
A#|----------10------9h10p9------|----------10------9/10/12--|
F#|--11--11------11----------11--|--11--11------11-----------|
C#|------------------------------|---------------------------|
G#|------------------------------|---------------------------|
C#|------------------------------|---------------------------|

D#|------------------|--------------------|
A#|------------------|--------------------|
F#|-11-11--11-11-11--|--9--9---9--13--13--|
C#|--x--x---x--x--x--|--x--x---x---x---x--|
G#|--9--9---9--9--9--|--7--7---7--11--11--|
C#|------------------|--------------------|

[Verse 2] Guitar 1:
"We Can Never Escape..."
D#|------------------|------------------|
A#|------------------|------------------|
F#|------------------|------------------|
C#|--4--4---4--4--4--|--2--2---2--2--2--|
G#|--4--4---4--4--4--|--2--2---2--2--2--|
C#|--4--4---4--4--4--|--2--2---2--2--2--|


[PreChorus 2] Guitar 1:
"There's No Hope..."
D#|-----------------------------------------|------------------------------------------|
A#|--10--10--9--10--10--10--10--12--12--12--|--14--14--12--14--14--14--14--15--15--15--|
F#|---9---9--9---9---9---9---9---9---9---9--|--14--14--14--14--14--14--14--14--14--14--|
C#|-----------------------------------------|------------------------------------------|
G#|-----------------------------------------|------------------------------------------|
C#|-----------------------------------------|------------------------------------------|

D#|-----------------------------------------|--------------------------------------|
A#|--10--10--9--10--10--10--10--12--12--12--|--14--14--12--14--14--15--15--14--15--|
F#|---9---9--9---9---9---9---9---9---9---9--|--14--14--14--14--14--14--14--14--14--|
C#|-----------------------------------------|--------------------------------------|
G#|-----------------------------------------|--------------------------------------|
C#|-----------------------------------------|--------------------------------------|


[PreChorus 2] Guitar 2:
"Take Me Back..."
D#|-----------|--------------------|------------------|------------------|
A#|-----------|--------------------|------------------|------------------|
F#|-----------|--------------------|------------------|------------------|
C#|--0--0--0--|--0--0--0--2--2--2--|--7--7---7--7--7--|--7--7---6--6--6--|
G#|--0--0--0--|--0--0--0--2--2--2--|--7--7---7--7--7--|--7--7---7--7--7--|
C#|--0--0--0--|--0--0--0--2--2--2--|--7--7---7--7--7--|--7--7---6--6--6--|


D#|-----------|--------------------|------------------|------------------|
A#|-----------|--------------------|------------------|------------------|
F#|-----------|--------------------|------------------|------------------|
C#|--0--0--0--|--0--0--0--2--2--2--|--4--4---4--4--4--|--2--2---2--2--2--|
G#|--0--0--0--|--0--0--0--2--2--2--|--4--4---4--4--4--|--2--2---2--2--2--|
C#|--0--0--0--|--0--0--0--2--2--2--|--4--4---4--4--4--|--2--2---2--2--2--|


[Break] Guitar 1:
"Just Slow Down"
D#|-------------|--------------------------------------------9h12--9--|-----------------------9--10--10--10--|
A#|--7---10--9--|--10-----10-----10-----10-----10-----10h12-----------|--9--9--10--10--12--12----------------|
F#|--x----x--x--|------9------9------9------9------9------------------|--9--9---9---9---9---9----------------|
C#|--x----x--x--|-----------------------------------------------------|--------------------------------------|
G#|--5----9--7--|-----------------------------------------------------|--------------------------------------|
C#|-------------|-----------------------------------------------------|--------------------------------------|

[Break] Guitar 2:
"Take A Minute.."
D#|-----|------------------------------------------------|
A#|-----|------------------------------------------------|
F#|-----|------------------------------------------------|
C#|--0--|--2---2--2--2--2--2--2--2--2--2--2--2--2--2--2--|
G#|--0--|--2---2--2--2--2--2--2--2--2--2--2--2--2--2--2--|
C#|--0--|--2---2--2--2--2--2--2--2--2--2--2--2--2--2--2--|

[Chorus] Guitar 1:
"Say Something Sweet..."
D#|---------------9---------|-------------------------|------------------|--------------------|
A#|--10-----9-----------10--|--9-----10-----12/14\10--|--7--7--7/10\7-7--|--7--7--9--------7--|
F#|------9-----9-----9------|-----9------9------------|------------------|-----------9--9-----|
G#|-------------------------|-------------------------|------------------|--------------------|
G#|-------------------------|-------------------------|------------------|--------------------|
C#|-------------------------|-------------------------|------------------|--------------------|(x2)

D#|----------9-----9--|--7--9--10------9---|------------------------------|---------------------------|
A#|--10--12-----------|------------10------|----------10----------10------|--10-----------9-----------|
F#|-------------9-----|--------------------|--11--11------11--11------11--|------9--9--9-----9--9--9--|
C#|-------------------|--------------------|------------------------------|---------------------------|
G#|-------------------|--------------------|------------------------------|---------------------------|
C#|-------------------|--------------------|------------------------------|---------------------------|

D#|---------------------------------------7\--|
A#|--7--7---7--7--7--7---7--10-------9--------|
F#|-----------------------------9-------------|
C#|-------------------------------------------|
G#|-------------------------------------------|
C#|-------------------------------------------|

[Chorus]
"Say Something Sweet..."
D#|----------------------------|-----------------------------------|
A#|----------------------------|-----------------------------------|
F#|----------------------------|-----------------------------------|
C#|--7--7--x--x--2p0--2--x--x--|--0--0--x--x--4--4--4--4--4--2--2--|
G#|--7--7--x--x--2p0--2--x--x--|--0--0--x--x--4--4--4--4--4--2--2--|
C#|--7--7--x--x--2p0--2--x--x--|--0--0--x--x--4--4--4--4--4--2--2--|

D#|----------------------------|---------------------------------|
A#|----------------------------|---------------------------------|
F#|----------------------------|---------------------------------|
C#|--7--7--x--x--2p0--2--x--x--|--0--0--x--x--4--4--4--4---6--6--|
G#|--7--7--x--x--2p0--2--x--x--|--0--0--x--x--4--4--4--4---7--7--|
C#|--7--7--x--x--2p0--2--x--x--|--0--0--x--x--4--4--4--4---6--6--|

D#|----------------------------|----------------------------------|
A#|----------------------------|----------------------------------|
F#|----------------------------|----------------------------------|
C#|--7--7--x--x--2p0--2--x--x--|--0--0--x--x--4--4--4--4----2--2--|
G#|--7--7--x--x--2p0--2--x--x--|--0--0--x--x--4--4--4--4----2--2--|
C#|--7--7--x--x--2p0--2--x--x--|--0--0--x--x--4--4--4--4----2--2--|

D#|-----------------------|-------------------------|
A#|-----------------------|-------------------------|
F#|-----------------------|-------------------------|
C#|--0--0--0--0--0--0--0--|--4--2--2---2--2--2---2--|
G#|--0--0--0--0--0--0--0--|--4--2--2---2--2--2---2--|
C#|--0--0--0--0--0--0--0--|--4--2--2---2--2--2---2--|

[Bridge] Guitar 1
"This Is Beautiful Madness..."
D#|-------------------------|
A#|--10--14--9----9/10\9\7--|
F#|---x---x--x--------------|
C#|---x---x--x--------------|
G#|---9--12--7-----7/9\7\5--|
C#|-------------------------|

D#|-----------------------------------------|-------------------------------------|
A#|--10--14--9--(7)-(7)-(7)--9/10\9\7--(7)--|--10--14--9--(7)-(7)-(7)--9/10\9/10--|
C#|-----------------------------------------|-------------------------------------|
C#|-----------------------------------------|-------------------------------------|
G#|-----------------------------------------|-------------------------------------|
C#|-----------------------------------------|-------------------------------------|

D#|-------------------|----------------------14--|
A#|--10/12--12/14--9--|--10/12\10-----10/12------|
F#|-------------------|------------9-------------|
C#|-------------------|--------------------------|
G#|-------------------|--------------------------|
C#|-------------------|--------------------------|


[Bridge]
"...Love And Sadness..."
D#|---------------------------------------------------------------------------------|
A#|---------------------------------------------------------------------------------|
F#|---------------------------------------------------------------------------------|
C#|--4--4--7--7--2---2--2--2--2/4---0--0--0--0--0--0--0--0--0--0--0--0--0--0--0--0--|
G#|--4--4--7--7--2---2--2--2--2/4---0--0--0--0--0--0--0--0--0--0--0--0--0--0--0--0--|
C#|--4--4--7--7--2---2--2--2--2/4---0--0--0--0--0--0--0--0--0--0--0--0--0--0--0--0--|(x2)

D#|--------------------------------------------------|
A#|--------------------------------------------------|
F#|--------------------------------------------------|
C#|--2--2--2--2--2--2--2--2--2--2--2--2--2--2--2--2--|
G#|--2--2--2--2--2--2--2--2--2--2--2--2--2--2--2--2--|
C#|--2--2--2--2--2--2--2--2--2--2--2--2--2--2--2--2--|

[Final Chorus] Guitar 1:
"Something Sweet and Innocent..."
D#|------------------|--------------------|
A#|--7--7--7/10\7-7--|--7--7--9--------7--|
F#|------------------|-----------9--9-----|
G#|------------------|--------------------|
G#|------------------|--------------------|
C#|------------------|--------------------|

D#|---------------9---------|-------------------------|------------------|--------------------|
A#|--10-----9-----------10--|--9-----10-----12/14\10--|--7--7--7/10\7-7--|--7--7--9--------7--|
F#|------9-----9-----9------|-----9------9------------|------------------|-----------9--9-----|
G#|-------------------------|-------------------------|------------------|--------------------|
G#|-------------------------|-------------------------|------------------|--------------------|
C#|-------------------------|-------------------------|------------------|--------------------|

D#|----------9-----9--|--7--9--10------9---|------------------------------|---------------------------|
A#|--10--12-----------|------------10------|----------10----------10------|--10-----------9-----------|
F#|-------------9-----|--------------------|--11--11------11--11------11--|------9--9--9-----9--9--9--|
C#|-------------------|--------------------|------------------------------|---------------------------|
G#|-------------------|--------------------|------------------------------|---------------------------|
C#|-------------------|--------------------|------------------------------|---------------------------|

D#|-----------------9---10------------7--|----------------10----7---------12--|
A#|--7--7---10--10----------10/12--9-----|--7--7--10--10-----------9--12------|
F#|--------------------------------------|------------------------------------|
C#|--------------------------------------|------------------------------------|
G#|--------------------------------------|------------------------------------|
C#|--------------------------------------|------------------------------------|

[Final Chorus] Guitar 2:
"Say Something Sweet..."
D#|------------------|-----------------------------------------------------------|
A#|------------------|-----------------------------------------------------------|
F#|------------------|-----------------------------------------------------------|
C#|--7--7----2p0--2--|--0--0--0--0--0--0--0--0--0--0--4--4--4--4--4--2--2--2--2--|
G#|--7--7----2p0--2--|--0--0--0--0--0--0--0--0--0--0--4--4--4--4--4--2--2--2--2--|
C#|--7--7----2p0--2--|--0--0--0--0--0--0--0--0--0--0--4--4--4--4--4--2--2--2--2--|

D#|-------------------------------------------------|--------------------------------------------------------|
A#|-------------------------------------------------|--------------------------------------------------------|
F#|-------------------------------------------------|--------------------------------------------------------|
C#|--7--7--7--7--7--7--7--7--2p0--2--2--2--2--2--2--|--0--0--0--0--0--0--0--0--0--0--4--4--4--4--6--6--6--6--|
G#|--7--7--7--7--7--7--7--7--2p0--2--2--2--2--2--2--|--0--0--0--0--0--0--0--0--0--0--4--4--4--4--6--6--6--6--|
C#|--7--7--7--7--7--7--7--7--2p0--2--2--2--2--2--2--|--0--0--0--0--0--0--0--0--0--0--4--4--4--4--6--6--6--6--|

D#|-------------------------------------------------|-------------------------------------------------------|
A#|-------------------------------------------------|-------------------------------------------------------|
F#|-------------------------------------------------|-------------------------------------------------------|
C#|--7--7--7--7--7--7--7--7--2p0--2--2--2--2--2--2--|--0--0--0--0--0--0--0--0--0--0--4--4--4--4----2--2--2--|
G#|--7--7--7--7--7--7--7--7--2p0--2--2--2--2--2--2--|--0--0--0--0--0--0--0--0--0--0--4--4--4--4----2--2--2--|
C#|--7--7--7--7--7--7--7--7--2p0--2--2--2--2--2--2--|--0--0--0--0--0--0--0--0--0--0--4--4--4--4----2--2--2--|

D#|--------------------------------------------------|--------------------------------------------------|
A#|--------------------------------------------------|--------------------------------------------------|
F#|--------------------------------------------------|--------------------------------------------------|
C#|--0--0--0--0--0--0--0--0--0--0--0--0--0--0--0--0--|--2--2--2--2--2--2--2--2--2--2--2--2--2--2--2--2--|
G#|--0--0--0--0--0--0--0--0--0--0--0--0--0--0--0--0--|--2--2--2--2--2--2--2--2--2--2--2--2--2--2--2--2--|
C#|--0--0--0--0--0--0--0--0--0--0--0--0--0--0--0--0--|--2--2--2--2--2--2--2--2--2--2--2--2--2--2--2--2--|(x2)

[Outro] Guitar 1:
D#|--------------------------------------------|------------------------------------------|
A#|--10--10--9--10--10--9--10--10--12--12--12--|--14--14--12--14--14--14--14--15--15--15--|
F#|---9---9--9---9---9--9---9---9---9---9---9--|--14--14--14--14--14--14--14--14--14--14--|
C#|--------------------------------------------|------------------------------------------|
G#|--------------------------------------------|------------------------------------------|
C#|--------------------------------------------|------------------------------------------|

D#|----------------------------------------|-------------------------|
A#|--10--10--10----10--10--10--12--12--12--|--14--14--12--14---------|
F#|---9---9--9-----9---9---9----9---9---9--|--14--14--14--14--14--9--|
C#|----------------------------------------|----------------------9--|
G#|----------------------------------------|----------------------7--|
C#|----------------------------------------|-------------------------|

[Outro] Guitar 2:
D#|------------------|--------------------|------------------|--------------------|
A#|------------------|--------------------|------------------|--------------------|
F#|------------------|--------------------|------------------|--------------------|
C#|--0--0---0--0--0--|--0--0--0--2--2--2--|--7--7---7--7--7--|--7--7--7--6--6--6--|
G#|--0--0---0--0--0--|--0--0--0--2--2--2--|--7--7---7--7--7--|--7--7--7--7--7--7--|
C#|--0--0---0--0--0--|--0--0--0--2--2--2--|--7--7---7--7--7--|--7--7--7--6--6--6--|

D#|-------------|--------------------|------------------|-----|
A#|-------------|--------------------|------------------|-----|
F#|-------------|--------------------|------------------|-----|
C#|--0--0--0----|--0--0--0--2--2--2--|--4--4---4--4--4--|--2--|
G#|--0--0--0----|--0--0--0--2--2--2--|--4--4---4--4--4--|--2--|
C#|--0--0--0----|--0--0--0--2--2--2--|--4--4---4--4--4--|--2--|

____________________________________________________________________________________________________

                                        T13.   WORTH IT
____________________________________________________________________________________________________


Tuning: Drop D (D A D G B E)

[Verse 1] Guitar 2
"Can You Feel It?"
e|-----------------------------------------------------------------------------------------|
B|-----------------------------------------------------------------------------------------|
G|-----------------------------------------------------------------------------------------|
D|-----------------------------------------------------------------------------------------|
A|-----------------------------------------------------------------------------------------|
D|--12--12--12--7--7--7--7--7--7--7--7--7--7--7--4--4--4--7--7--7--7--7--7--7--7--7--7--7--| (x2)

[Breakdown] Guitar 1 (Bass Transcribed)
"Cause I Fucking Believed It..."
e|-----------------------------------------------|
B|-----------------------------------------------|
G|--4--4--4--7----7--7--7----7--7--7----7--7--7--|
D|--4--4--4--7----7--7--7----7--7--7----7--7--7--|
A|--2--2--2--5----5--5--5----5--5--5----5--5--5--|
D|-----------------------------------------------|(x3)

e|--------------------------------------------------------|
B|--------------------------------------------------------|
G|--4--4--4--7----7--7--7----7--7--7----9--9--9--9--9--9--|
D|--4--4--4--7----7--7--7----7--7--7----9--9--9--9--9--9--|
A|--2--2--2--5----5--5--5----5--5--5----7--7--7--7--7--7--|
D|--------------------------------------------------------|


[Breakdown] Guitar 2
"Cause I Fucking Believed It..."
e|--------------------------------------------------|--------------------------------------------------|
B|--------------------------------------------------|--------------------------------------------------|
G|-11-11-11-11-11-11-11-11-11-11-11-11--14--14--14--|-11-11-11-11-11-11-11-11-11-11-11-11--14--14--14--|
D|--x--x--x--x--x--x--x--x--x--x--x--x---x---x---x--|--x--x--x--x--x--x--x--x--x--x--x--x---x---x---x--|
A|--9--9--9--9--9--9--9--9--9--9--9--9--12--12--12--|--9--9--9--9--9--9--9--9--9--9--9--9--12--12--12--|
D|--------------------------------------------------|--------------------------------------------------|

e|--------------------------------------------------|--------------------------------------|
B|--------------------------------------------------|--------------------------------------|
G|-11-11-11-11-11-11-11-11-11-11-11-11--14--14--14--|-11-11-11-11-11-11-11-11--9--9--9--9--|
D|--x--x--x--x--x--x--x--x--x--x--x--x---x---x---x--|--x--x--x--x--x--x--x--x--9--9--9--9--|
A|--9--9--9--9--9--9--9--9--9--9--9--9--12--12--12--|--9--9--9--9--9--9--9--9--7--7--7--7--|
D|--------------------------------------------------|--------------------------------------|

[Verse 2] Guitar 1 (x2)
"And I'm Sorry"
e|--12h14p12----------12------12------12------12------12------|
B|------------14--14------14------14------14------14------14--|
G|------------------------------------------------------------|
D|------------------------------------------------------------|
A|------------------------------------------------------------|
D|------------------------------------------------------------|

e|-------------------12------12------12------12------12------|
B|--10/12\10/14--14------14------14------14------14------14--|
G|-----------------------------------------------------------|
D|-----------------------------------------------------------|
A|-----------------------------------------------------------|
D|-----------------------------------------------------------|

[Verse 2] Guitar 2
"And I'm Sorry.."
e|-----------------------------------------------------------------------------------------|
B|-----------------------------------------------------------------------------------------|
G|-----------------------------------------------------------------------------------------|
D|-----------------------------------------------------------------------------------------|
A|-----------------------------------------------------------------------------------------|
D|--12--12--12--7--7--7--7--7--7--7--7--7--7--7--4--4--4--7--7--7--7--7--7--7--7--7--7--7--| (x2)

[Chorus] Guitar 1:

e|--14------14--------------------------------------12------12------|
B|------------------12------12------14------14----------------------|
G|------14------14------14------14------14------14------14------14--|
D|------------------------------------------------------------------|
A|------------------------------------------------------------------|
D|------------------------------------------------------------------|

e|--------------------------------------------------12------12------|
B|--14------14------12------12------14------14----------------------|
G|------14------14------14------14------14------14------14------14--|
D|------------------------------------------------------------------|
A|------------------------------------------------------------------|
D|------------------------------------------------------------------|

e|------------------------------------------------------------------|
B|--14------14------12------12------14------14------12------12------|
G|------14------14------14------14------14------14------14------14--|
D|------------------------------------------------------------------|
A|------------------------------------------------------------------|
D|------------------------------------------------------------------|


e|--------------------------------------------------12------12------|
B|--14------14------12------12------14------14----------------------|
G|------14------14------14------14------14------14------14------14--|
D|------------------------------------------------------------------|
A|------------------------------------------------------------------|
D|------------------------------------------------------------------|

[Chorus] Guitar 2:
"We Really Should've Thought It Through..."
e|-----------------------|-----------------------|-----------------------|--------------------------|
B|-----------------------|-----------------------|-----------------------|--------------------------|
G|-----------------------|-----------------------|-----------------------|--------------------------|
D|--0--0--0--0--0--0--0--|--7--7--7--7--7--7--7--|--4--4--4--4--4--4--4--|--2--2--2--2--2--2--2--2--|
A|--0--0--0--0--0--0--0--|--7--7--7--7--7--7--7--|--4--4--4--4--4--4--4--|--2--2--2--2--2--2--2--2--|
D|--0--0--0--0--0--0--0--|--7--7--7--7--7--7--7--|--4--4--4--4--4--4--4--|--2--2--2--2--2--2--2--2--|(x2)

e|-------------|----------------|----------------|--------------------------|
B|-------------|----------------|----------------|--------------------------|
G|-------------|--2--2----2--2--|----------------|--------------------------|
D|--0----0--0--|--2--2----2--2--|--4--4----4--4--|--2--2--2--2--2--2--2--2--|
A|--0----0--0--|--0--0----0--0--|--4--4----4--4--|--2--2--2--2--2--2--2--2--|
D|--0----0--0--|----------------|--4--4----4--4--|--2--2--2--2--2--2--2--2--|

e|-----------------------|-----------------------|-----------------------|--------------------------|
B|-----------------------|-----------------------|-----------------------|--------------------------|
G|-----------------------|-----------------------|-----------------------|--------------------------|
D|--0--0--0--0--0--0--0--|--7--7--7--7--7--7--7--|--4--4--4--4--4--4--4--|--2--2--2--2--2--2--2--2--|
A|--0--0--0--0--0--0--0--|--7--7--7--7--7--7--7--|--4--4--4--4--4--4--4--|--2--2--2--2--2--2--2--2--|
D|--0--0--0--0--0--0--0--|--7--7--7--7--7--7--7--|--4--4--4--4--4--4--4--|--2--2--2--2--2--2--2--2--|

[Guitar Break] Guitar 2
e|-----------------------------------------------|
B|-----------------------------------------------|
G|-----------------------------------------------|
D|-----------------------------------------------|
A|-----------------------------------------------|
D|--12--12--12--7--7--7--7--7--7--7--7--7--7--7--|


[Verse 3] Guitar 1 (x2)
"Is It Pointless?"
e|--12h14p12----------12------12------12------12------12------|
B|------------14--14------14------14------14------14------14--|
G|------------------------------------------------------------|
D|------------------------------------------------------------|
A|------------------------------------------------------------|
D|------------------------------------------------------------|

e|-------------------12------12------12------12------12------|
B|--10/12\10/14--14------14------14------14------14------14--|
G|-----------------------------------------------------------|
D|-----------------------------------------------------------|
A|-----------------------------------------------------------|
D|-----------------------------------------------------------|

[Verse 3] Guitar 2
"Is It Pointless?"
e|-----------------------------------------------------------------------------------------|
B|-----------------------------------------------------------------------------------------|
G|-----------------------------------------------------------------------------------------|
D|-----------------------------------------------------------------------------------------|
A|-----------------------------------------------------------------------------------------|
D|--12--12--12--7--7--7--7--7--7--7--7--7--7--7--4--4--4--7--7--7--7--7--7--7--7--7--7--7--| (x2)

[Breakdown] Guitar 1 (Bass Transcribed)
"Cause I Fucking Believed It..."
e|-----------------------------------------------|
B|-----------------------------------------------|
G|--4--4--4--7----7--7--7----7--7--7----7--7--7--|
D|--4--4--4--7----7--7--7----7--7--7----7--7--7--|
A|--2--2--2--5----5--5--5----5--5--5----5--5--5--|
D|-----------------------------------------------|(x3)

e|--------------------------------------------------------|
B|--------------------------------------------------------|
G|--4--4--4--7----7--7--7----7--7--7----9--9--9--9--9--9--|
D|--4--4--4--7----7--7--7----7--7--7----9--9--9--9--9--9--|
A|--2--2--2--5----5--5--5----5--5--5----7--7--7--7--7--7--|
D|--------------------------------------------------------|

[Breakdown] Guitar 2
"Bur You Couldn't Ignore It..."
e|--------------------------------------------------|--------------------------------------------------|
B|--------------------------------------------------|--------------------------------------------------|
G|-11-11-11-11-11-11-11-11-11-11-11-11--14--14--14--|-11-11-11-11-11-11-11-11-11-11-11-11--14--14--14--|
D|--x--x--x--x--x--x--x--x--x--x--x--x---x---x---x--|--x--x--x--x--x--x--x--x--x--x--x--x---x---x---x--|
A|--9--9--9--9--9--9--9--9--9--9--9--9--12--12--12--|--9--9--9--9--9--9--9--9--9--9--9--9--12--12--12--|
D|--------------------------------------------------|--------------------------------------------------|

e|--------------------------------------------------|--------------------------------------|
B|--------------------------------------------------|--------------------------------------|
G|-11-11-11-11-11-11-11-11-11-11-11-11--14--14--14--|-11-11-11-11-11-11-11-11--9--9--9--9--|
D|--x--x--x--x--x--x--x--x--x--x--x--x---x---x---x--|--x--x--x--x--x--x--x--x--9--9--9--9--|
A|--9--9--9--9--9--9--9--9--9--9--9--9--12--12--12--|--9--9--9--9--9--9--9--9--7--7--7--7--|
D|--------------------------------------------------|--------------------------------------|

[Chorus] Guitar 1:

e|--14------14--------------------------------------12------12------|
B|------------------12------12------14------14----------------------|
G|------14------14------14------14------14------14------14------14--|
D|------------------------------------------------------------------|
A|------------------------------------------------------------------|
D|------------------------------------------------------------------|

e|--------------------------------------------------12------12------|
B|--14------14------12------12------14------14----------------------|
G|------14------14------14------14------14------14------14------14--|
D|------------------------------------------------------------------|
A|------------------------------------------------------------------|
D|------------------------------------------------------------------|

e|------------------------------------------------------------------|
B|--14------14------12------12------14------14------12------12------|
G|------14------14------14------14------14------14------14------14--|
D|------------------------------------------------------------------|
A|------------------------------------------------------------------|
D|------------------------------------------------------------------|


e|--------------------------------------------------12------12------|
B|--14------14------12------12------14------14----------------------|
G|------14------14------14------14------14------14------14------14--|
D|------------------------------------------------------------------|
A|------------------------------------------------------------------|
D|------------------------------------------------------------------|


[Chorus] Guitar 2:
"We Really Should've Thought It Through..."
e|-----------------------|-----------------------|-----------------------|--------------------------|
B|-----------------------|-----------------------|-----------------------|--------------------------|
G|-----------------------|-----------------------|-----------------------|--------------------------|
D|--0--0--0--0--0--0--0--|--7--7--7--7--7--7--7--|--4--4--4--4--4--4--4--|--2--2--2--2--2--2--2--2--|
A|--0--0--0--0--0--0--0--|--7--7--7--7--7--7--7--|--4--4--4--4--4--4--4--|--2--2--2--2--2--2--2--2--|
D|--0--0--0--0--0--0--0--|--7--7--7--7--7--7--7--|--4--4--4--4--4--4--4--|--2--2--2--2--2--2--2--2--|(x2)

e|-------------|----------------|----------------|--------------------------|
B|-------------|----------------|----------------|--------------------------|
G|-------------|--2--2----2--2--|----------------|--------------------------|
D|--0----0--0--|--2--2----2--2--|--4--4----4--4--|--2--2--2--2--2--2--2--2--|
A|--0----0--0--|--0--0----0--0--|--4--4----4--4--|--2--2--2--2--2--2--2--2--|
D|--0----0--0--|----------------|--4--4----4--4--|--2--2--2--2--2--2--2--2--|

e|-----------------------|-----------------------|-----------------------|--------------------------|
B|-----------------------|-----------------------|-----------------------|--------------------------|
G|-----------------------|-----------------------|-----------------------|--------------------------|
D|--0--0--0--0--0--0--0--|--7--7--7--7--7--7--7--|--4--4--4--4--4--4--4--|--2--2--2--2--2--2--2--2--|
A|--0--0--0--0--0--0--0--|--7--7--7--7--7--7--7--|--4--4--4--4--4--4--4--|--2--2--2--2--2--2--2--2--|
D|--0--0--0--0--0--0--0--|--7--7--7--7--7--7--7--|--4--4--4--4--4--4--4--|--2--2--2--2--2--2--2--2--|


[Bridge] Guitar 1 (x2)
"Can You Feel It?"
e|--12h14p12----------12------12------12------12------12------|
B|------------14--14------14------14------14------14------14--|
G|------------------------------------------------------------|
D|------------------------------------------------------------|
A|------------------------------------------------------------|
D|------------------------------------------------------------|

e|-------------------12------12------12------12------12------|
B|--10/12\10/14--14------14------14------14------14------14--|
G|-----------------------------------------------------------|
D|-----------------------------------------------------------|
A|-----------------------------------------------------------|
D|-----------------------------------------------------------|

[Chorus] Guitar 1:
"Think It Through..."
e|--14------14--------------------------------------12------12------|
B|------------------12------12------14------14----------------------|
G|------14------14------14------14------14------14------14------14--|
D|------------------------------------------------------------------|
A|------------------------------------------------------------------|
D|------------------------------------------------------------------|

e|--------------------------------------------------12------12------|
B|--14------14------12------12------14------14----------------------|
G|------14------14------14------14------14------14------14------14--|
D|------------------------------------------------------------------|
A|------------------------------------------------------------------|
D|------------------------------------------------------------------|

e|------------------------------------------------------------------|
B|--14------14------12------12------14------14------12------12------|
G|------14------14------14------14------14------14------14------14--|
D|------------------------------------------------------------------|
A|------------------------------------------------------------------|
D|------------------------------------------------------------------|


e|--------------------------------------------------12--|
B|--14------14------12------12------14------14----------|
G|------14------14------14------14------14------14------|
D|------------------------------------------------------|
A|------------------------------------------------------|
D|------------------------------------------------------|

[Chorus] Guitar 2:
"Think It Through..."
e|-----------------------|-----------------------|-----------------------|--------------------------|
B|-----------------------|-----------------------|-----------------------|--------------------------|
G|-----------------------|-----------------------|-----------------------|--------------------------|
D|--0--0--0--0--0--0--0--|--7--7--7--7--7--7--7--|--4--4--4--4--4--4--4--|--2--2--2--2--2--2--2--2--|
A|--0--0--0--0--0--0--0--|--7--7--7--7--7--7--7--|--4--4--4--4--4--4--4--|--2--2--2--2--2--2--2--2--|
D|--0--0--0--0--0--0--0--|--7--7--7--7--7--7--7--|--4--4--4--4--4--4--4--|--2--2--2--2--2--2--2--2--|(x2)


e|-------------|----------------|----------------|--------------------------|
B|-------------|----------------|----------------|--------------------------|
G|-------------|--2--2----2--2--|----------------|--------------------------|
D|--0----0--0--|--2--2----2--2--|--4--4----4--4--|--2--2--2--2--2--2--2--2--|
A|--0----0--0--|--0--0----0--0--|--4--4----4--4--|--2--2--2--2--2--2--2--2--|
D|--0----0--0--|----------------|--4--4----4--4--|--2--2--2--2--2--2--2--2--|

e|-----------------------|-----------------------|-----------------------|-----|
B|-----------------------|-----------------------|-----------------------|-----|
G|-----------------------|-----------------------|-----------------------|-----|
D|--0--0--0--0--0--0--0--|--7--7--7--7--7--7--7--|--4--4--4--4--4--4--4--|--2--|
A|--0--0--0--0--0--0--0--|--7--7--7--7--7--7--7--|--4--4--4--4--4--4--4--|--2--|
D|--0--0--0--0--0--0--0--|--7--7--7--7--7--7--7--|--4--4--4--4--4--4--4--|--2--|


[Outro] Guitar 1:
"Worth It..."
e|------------------------------------------------------------------|
B|--14------14------12------12------14------14------12------12------|
G|------14------14------14------14------14------14------14------14--|
D|------------------------------------------------------------------|
A|------------------------------------------------------------------|
D|------------------------------------------------------------------|

e|----------------------------------------------------------12/14\12/17--|
B|--14------14------12------12------14------14------12-------------------|
G|------14------14------14------14------14------14------14---------------|
D|-----------------------------------------------------------------------|
A|-----------------------------------------------------------------------|
D|-----------------------------------------------------------------------|

[Outro] Guitar 2:
"Worth It..."
e|-----------------------|-----------------------|-----------------------|--------------------------|
B|-----------------------|-----------------------|-----------------------|--------------------------|
G|-----------------------|-----------------------|-----------------------|--------------------------|
D|--0--0--0--0--0--0--0--|--7--7--7--7--7--7--7--|--4--4--4--4--4--4--4--|--2--2--2--2--2--2--2--2--|
A|--0--0--0--0--0--0--0--|--7--7--7--7--7--7--7--|--4--4--4--4--4--4--4--|--2--2--2--2--2--2--2--2--|
D|--0--0--0--0--0--0--0--|--7--7--7--7--7--7--7--|--4--4--4--4--4--4--4--|--2--2--2--2--2--2--2--2--|

e|-----------------------|-----------------------|-----------------------|--------------------------|
B|-----------------------|-----------------------|-----------------------|--------------------------|
G|-----------------------|-----------------------|-----------------------|--------------------------|
D|--0--0--0--0--0--0--0--|--7--7--7--7--7--7--7--|--4--4--4--4--4--4--4--|--2--2--2--2--0--0--0--7--|
A|--0--0--0--0--0--0--0--|--7--7--7--7--7--7--7--|--4--4--4--4--4--4--4--|--2--2--2--2--0--0--0--7--|
D|--0--0--0--0--0--0--0--|--7--7--7--7--7--7--7--|--4--4--4--4--4--4--4--|--2--2--2--2--0--0--0--7--|

___________________________________________________
************************************

| x   Dead note
| h   Hammer-on
| p   Pull-off
|(n)  Natural Harmonic
| /   Slide up
| \   Slide down
| b   Bend
| r   Bend Release
|~    Vibrato

************************************

            
            
Suggest correction
Creating personal tab
Creating personal tab
You can edit any tab online and save it as your Personal.

You can edit, replace or remove any tab part or add personal notes – all changes will be seen only by you.

Personal tabs can be accessed anytime from any device, even offline.
Learn more »
comments
print report bad tab
4 comments total. Showing first comments.
0 reply
ryanfears 75 Aug 19, 2017 01:10 PM

Motion Sickness is definitely in Drop C, according to Sam Bowden.

0 reply
chloebryce95 10 Aug 24, 2017 01:07 AM

This is great, thanks man :)

guest
You may want to rate the tab now too:
select rating
Wanna post a correction for this tab? Suggest correction