Oops, an error
Loading. Please wait.

What Did You Expect chords

version 2
version 2

Whole song

881 views 33 this week
no commentswrite comment
1 2 3 4 5
1 last vote to show rating
add to favorites
×
Save as Personal and add changes to this tab that will be seen only by you. Learn more ›
×
You can save this tab as Personal to edit and correct it or add notes. All changes will be seen only by you. Learn more »
launch autoscroll
font size
0
reset
transpose
0
reset
display chords
guitar tuner
edit
Autoscroll
slow
fast
+/-
esc
set tempo
stop
Strumming
There is no strumming pattern for this song yet. and get +5 IQ
The correct key is one step lower, however i'm fairly sure the acoustic version is standard and 
sounds perfectly fine!

[Verse 1]

G                                                                  C
6 months have been and I'm still sick of everything that makes you smile
                                                    G
I've been here before, I'm just hoping this will die down

But I've learnt from experience, that love is a risk and I'm just hoping your hearing this
C
So maybe you'll know just how it feels to be sitting here

Wide awake and far from dreaming


[Prechorus 1]

Em            D            C
Don't tell me that I'll be fine

C
My broken bones are caving in
Em
I feel you crawl beneath my skin
D                                       C
You went and fucked this up 'cause you couldn't keep your legs shut


[Chorus]

G
And you'll find me burning bridges
C
Searching for some sense of distance
Em                                    C
Tearing out post trauma stitches that held me together
G
So far gone, my mind is racing
C
Back and forth I can't stop pacing
Em                                       C
Thinking where we could have been if you just braved the weather


[Verse 2]

G
Fuck his car and fuck his money
C
He might pay for you but he's got nothing
  G                      C
I won't be in sight when you realize that I 
Em                           D
might just have been a more stable support
       Em                             D        C
To the life that you'll build when he cuts himself short


[Prechorus]

Em            D            C
Don't tell me that I'll be fine
Em             D             C
I'm so sick of hoping you're right


[Chorus]

G
And you'll find me burning bridges
C
Searching for some sense of distance
Em                                    C
Tearing out post trauma stitches that held me together
G
So far gone, my mind is racing
C
Back and forth I can't stop pacing
Em                                       C
Thinking where we could have been if you just braved the weather


[Bridge]

C Em G D x2

or

D|---------------------------------------------------------------------------|
A|-1---1---1---1---1---1---1---1-----0---0---0---0---0---0---0---0-----------|
F|---0---0---0---0---0---0---0---0-----0---0---0---0---0---0---0---0---------|
C|-----------------------------------------------------------------=---------|
G|---------------------------------------------------------------------------|
D|---------------------------------------------------------------------------|

D|---------------------------------------------------------------------------|
A|-3---3---3---3---3---3---3---3-----3---3---3---3---3---3---3---3-----------|
F|---0---0---0---0---0---0---0---0-----2---2---2---2---2---2---2---2---------|
C|-----------------------------------------------------------------=---------|
G|---------------------------------------------------------------------------|
D|---------------------------------------------------------------------------|   (both) x2

C
Take all I am
          Em
Tear me into pieces
               G                                 D
Deconstruct my bones and tell me you still don't know who I am
        C                          Em
You've got some nerve thinking we could be friends
G
Well what did you expect? A fucking compliment?


[Outro]

C
So take what's left of me
                   Em
A broken fragment from before
                                                   G
I guess I'll try to be the best I can without you here
                                           D
I know I'll find myself along this beaten track

I'll have to let you go and let these ghosts stay in the past

C
So take what's left of me
                   Em
A broken fragment from before
                                                   G
I guess I'll try to be the best I can without you here
                                           D
I know I'll find myself along this beaten track
                                                          C
I'll have to let you go and let these ghosts stay in the past

Either don't play anything and play a single C on "fine"

or 
play one not on each word

D|---------------------------------------------------------------------------|
A|---------------------------------------------------------------------------|
F|---------------------------------------------------------------------------|
C|---------------------------------------------------------------------------|
G|-3~/10~--7~--5~--3~~~------------------------------------------------------|
D|---------------------------------------------------------------------------|

I guess I'll be fine
Suggest correction
Creating personal tab
Creating personal tab
You can edit any tab online and save it as your Personal.

You can edit, replace or remove any tab part or add personal notes – all changes will be seen only by you.

Personal tabs can be accessed anytime from any device, even offline.
Learn more »
Give kudos to tab author, rate the tab!
1 2 3 4 5
comments
print report bad tab
guest
You may want to rate the tab now too:
select rating
Wanna post a correction for this tab? Suggest correction