Oops, an error
Loading. Please wait.

Where Do We Go When We Go tab

version 1
version 1

Whole song

  • Easiest Neck Deep song ever written, can be learnt in 5 minutes.
  • Both guitars tabbed in full. (Including opening xylophone).
4,159 views 75 this week
1 commentread comment
1 2 3 4 5
x 7
add to favorites
×
Save as Personal and add changes to this tab that will be seen only by you. Learn more ›
×
You can save this tab as Personal to edit and correct it or add notes. All changes will be seen only by you. Learn more »
launch autoscroll
font size
0
reset
how to read this tab
guitar tuner
edit
Autoscroll
slow
fast
+/-
esc
set tempo
stop
Watch my cover for timing: https://www.youtube.com/watch?v=0AJmwz1X0gU

[Intro]
D#|---------------------------------------------------------------------------|
A#|---------------------------------------------------------------------------|
F#|--------11b12---------11b12----------11b12-------------11b12---------------|
C#|-0--0-0--------0--0-0--------0--0-0-----------0--0--0----------------------|
G#|-0--0-0--9b10--0--0-0--9b10--0--0-0---9b10----0--0--0---9b10---------------|
C#|-0--0-0--------0--0-0--------0--0-0-----------0--0--0----------------------|

D#|---------------------------------------------------------------------------|
A#|---------------------------------------------------------------------------|
F#|-4---7----9---11--9---7----4----7-----11----9-----7------------------------|
C#|---------------------------------------------------------------------------|
G#|-2---5----7---9---7---5----2----5-----9-----7-----5------------------------|
C#|---------------------------------------------------------------------------|

[Verse]
D#|---------------------------------------------------------------------------|
A#|---------------------------------------------------------------------------|
F#|---------------------------------------------------------------------------|
C#|-0-0-0-0--0-0-0-0-0-0--0-0--0-0-0-0-2-2-2-2--2-2-2-2-2-2--2-2--2-2-2-2-----|
G#|-0-0-0-0--0-0-0-0-0-0--0-0--0-0-0-0-2-2-2-2--2-2-2-2-2-2--2-2--2-2-2-2-----|
C#|-0-0-0-0--0-0-0-0-0-0--0-0--0-0-0-0-2-2-2-2--2-2-2-2-2-2--2-2--2-2-2-2-----|

D#|---------------------------------------------------------------------------|
A#|---------------------------------------------------------------------------|
F#|---------------------------------------------------------------------------|
C#|-9---9-9-9-9---9-7----7-7-7-7-7-7-7----------------------------------------|
G#|-9---9-9-9-9---9-7----7-7-7-7-7-7-7----------------------------------------|
C#|-9---9-9-9-9---9-7----7-7-7-7-7-7-7----------------------------------------|

D#|---------------------------------------------------------------------------|
A#|---------------------------------------------------------------------------|
F#|---------------------------------------------------------------------------|
C#|-0-0-0-0--0-0-0-0-0-0--0-0--0-0-0-0-2-2-2-2--2-2-2-2-2-2--2-2--2-2-2-2-----|
G#|-0-0-0-0--0-0-0-0-0-0--0-0--0-0-0-0-2-2-2-2--2-2-2-2-2-2--2-2--2-2-2-2-----|
C#|-0-0-0-0--0-0-0-0-0-0--0-0--0-0-0-0-2-2-2-2--2-2-2-2-2-2--2-2--2-2-2-2-----|

D#|---------------------------------------------------------------------------|
A#|---------------------------------------------------------------------------|
F#|---------------------------------------------------------------------------|
C#|-9---9-9-9-9---9-7----7-7-7-7-7-7-7----------------------------------------|
G#|-9---9-9-9-9---9-7----7-7-7-7-7-7-7----------------------------------------|
C#|-9---9-9-9-9---9-7----7-7-7-7-7-7-7----------------------------------------|

[Chorus]
D#|---------------------------------------------------------------------------|
A#|---------------------------------------------------------------------------|
F#|-7-7-7-7-7-7-7-7-7-7-7-7-7----7-7-7-7-7-7-7-7-7-7-7-7-7--------------------|
C#|------------------------------7-7-7-7-7-7-7-7-7-7-7-7-7--------------------|
G#|-5-5-5-5-5-5-5-5-5-5-5-5-5-------------------------------------------------|
C#|------------------------------5-5-5-5-5-5-5-5-5-5-5-5-5--------------------|

D#|---------------------------------------------------------------------------|
A#|---------------------------------------------------------------------------|
F#|---------------------------------------------------------------------------|
C#|-0-0-0-0-0-0-0-0-0-0-0-0-0-0-0-0-0-0-0-0--2-2-2-2-2-2-2-2-5-5-5-5-5-5-5-5--|
G#|-0-0-0-0-0-0-0-0-0-0-0-0-0-0-0-0-0-0-0-0--2-2-2-2-2-2-2-2-5-5-5-5-5-5-5-5--|
C#|-0-0-0-0-0-0-0-0-0-0-0-0-0-0-0-0-0-0-0-0--2-2-2-2-2-2-2-2-5-5-5-5-5-5-5-5--|

[Interlude]
D#|---------------------------------------------------------------------------|
A#|---------------------------------------------------------------------------|
F#|--11-11-11-11b12----11---11-11---11b12--11--11-11--11b12-------------------|
C#|---------------------------------------------------------------------------|
G#|--9---9--9---9b10-----9----9--9---9b10---9---9--9---9b10-------------------|
C#|---------------------------------------------------------------------------|

[Verse 2]
D#|---------------------------------------------------------------------------|
A#|---------------------------------------------------------------------------|
F#|---------------------------------------------------------------------------|
C#|-9---9-9-9-9---9-7----7-7-7-7-7-7-7----------------------------------------|
G#|-9---9-9-9-9---9-7----7-7-7-7-7-7-7----------------------------------------|
C#|-9---9-9-9-9---9-7----7-7-7-7-7-7-7----------------------------------------|

D#|---------------------------------------------------------------------------|
A#|---------------------------------------------------------------------------|
F#|---------------------------------------------------------------------------|
C#|-0-0-0-0--0-0-0-0-0-0--0-0--0-0-0-0-2-2-2-2--2-2-2-2-2-2--2-2--2-2-2-2-----|
G#|-0-0-0-0--0-0-0-0-0-0--0-0--0-0-0-0-2-2-2-2--2-2-2-2-2-2--2-2--2-2-2-2-----|
C#|-0-0-0-0--0-0-0-0-0-0--0-0--0-0-0-0-2-2-2-2--2-2-2-2-2-2--2-2--2-2-2-2-----|

D#|---------------------------------------------------------------------------|
A#|---------------------------------------------------------------------------|
F#|---------------------------------------------------------------------------|
C#|-9---9-9-9-9---9-7----7-7-7-7-7-7-7----------------------------------------|
G#|-9---9-9-9-9---9-7----7-7-7-7-7-7-7----------------------------------------|
C#|-9---9-9-9-9---9-7----7-7-7-7-7-7-7----------------------------------------|

[Chorus]
D#|---------------------------------------------------------------------------|
A#|---------------------------------------------------------------------------|
F#|-7-7-7-7-7-7-7-7-7-7-7-7-7----7-7-7-7-7-7-7-7-7-7-7-7-7--------------------|
C#|------------------------------7-7-7-7-7-7-7-7-7-7-7-7-7--------------------|
G#|-5-5-5-5-5-5-5-5-5-5-5-5-5-------------------------------------------------|
C#|------------------------------5-5-5-5-5-5-5-5-5-5-5-5-5--------------------|

D#|---------------------------------------------------------------------------|
A#|---------------------------------------------------------------------------|
F#|---------------------------------------------------------------------------|
C#|-0-0-0-0-0-0-0-0-0-0-0-0-0-0-0-0-0-0-0-0--2-2-2-2-2-2-2-2-5-5-5-5-5-5-5-5--|
G#|-0-0-0-0-0-0-0-0-0-0-0-0-0-0-0-0-0-0-0-0--2-2-2-2-2-2-2-2-5-5-5-5-5-5-5-5--|
C#|-0-0-0-0-0-0-0-0-0-0-0-0-0-0-0-0-0-0-0-0--2-2-2-2-2-2-2-2-5-5-5-5-5-5-5-5--|

[Bridge]
D#|---------------------------------------------------------------------------|
A#|---------------------------------------------------------------------------|
F#|--------11b12---------11b12----------11b12-------------11b12---------------|
C#|-9--9-9--------9--9-9--------9--9-9-----------9--9--9----------------------|
G#|-9--9-9--9b10--9--9-9--9b10--9--9-9---9b10----9--9--9---9b10---------------|
C#|-9--9-9--------9--9-9--------9--9-9-----------9--9--9----------------------|

D#|---------------------------------------------------------------------------|
A#|---------------------------------------------------------------------------|
F#|---------------------------------------------------------------------------|
C#|-2-2-2-2-2-2-2-2-2-2-2-2-2-2-2-2-5-5-5-5-5-5-5-5-5-5-5-5-5-5-5-5--6*-------|
G#|-2-2-2-2-2-2-2-2-2-2-2-2-2-2-2-2-5-5-5-5-5-5-5-5-5-5-5-5-5-5-5-5-----------|
C#|-2-2-2-2-2-2-2-2-2-2-2-2-2-2-2-2-5-5-5-5-5-5-5-5-5-5-5-5-5-5-5-5-----------|

D#|---------------------------------------------------------------------------|
A#|---------------------------------------------------------------------------|
F#|--------11b12---------11b12----------11b12-------------11b12---------------|
C#|-9--9-9--------9--9-9--------9--9-9-----------9--9--9----------------------|
G#|-9--9-9--9b10--9--9-9--9b10--9--9-9---9b10----9--9--9---9b10---------------|
C#|-9--9-9--------9--9-9--------9--9-9-----------9--9--9----------------------|

D#|---------------------------------------------------------------------------|
A#|-----------------------------------------------------------------10-10-10--|
F#|---------------------------------------------------------------------------|
C#|-2-2-2-2-2-2-2-2-2-2-2-2-2-2-2-2-5-5-5-5-5-5-5-5-5-5-5-5-5-5-5-5--7--7--7--|
G#|-2-2-2-2-2-2-2-2-2-2-2-2-2-2-2-2-5-5-5-5-5-5-5-5-5-5-5-5-5-5-5-5-----------|
C#|-2-2-2-2-2-2-2-2-2-2-2-2-2-2-2-2-5-5-5-5-5-5-5-5-5-5-5-5-5-5-5-5-----------|

D#|---------------------------------------------------------------------------|
A#|---------------------------------------------------------------------------|
F#|---------------------------------------------------------------------------|
C#|-0--------2----5-------0-0-0-0-0-0-0-0-0-0-0-0-0-0-0-0-0-0-0-0-------------|
G#|-0--------2----5-------0-0-0-0-0-0-0-0-0-0-0-0-0-0-0-0-0-0-0-0-------------|
C#|-0--------2----5-------0-0-0-0-0-0-0-0-0-0-0-0-0-0-0-0-0-0-0-0-------------|

D#|---------------------------------------------------------------------------|
A#|---------------------------------------------------------------------------|
F#|---------------------------------------------------------------------------|
C#|-2-2-2-2-2-2-2-2-2-2-2-2-2-2-2-2-5-5-5-5-5-5-5-5-5-5-5-5-5-5-5-5-----------|
G#|-2-2-2-2-2-2-2-2-2-2-2-2-2-2-2-2-5-5-5-5-5-5-5-5-5-5-5-5-5-5-5-5-----------|
C#|-2-2-2-2-2-2-2-2-2-2-2-2-2-2-2-2-5-5-5-5-5-5-5-5-5-5-5-5-5-5-5-5-----------|

D#|---------------------------------------------------------------------------|
A#|---------------------------------------------------------------------------|
F#|--------11b12---------11b12----------11b12-------------11b12---------------|
C#|-0--0-0--------0--0-0--------0--0-0-----------0--0--0----------------------|
G#|-0--0-0--9b10--0--0-0--9b10--0--0-0---9b10----0--0--0---9b10---------------|
C#|-0--0-0--------0--0-0--------0--0-0-----------0--0--0----------------------|

D#|---------------------------------------------------------------------------|
A#|---------------------------------------------------------------------------|
F#|-4---7----9---11--9---7----4----7-----11----9-----7------------------------|
C#|---------------------------------------------------------------------------|
G#|-2---5----7---9---7---5----2----5-----9-----7-----5------------------------|
C#|---------------------------------------------------------------------------|

[Final Chorus]
D#|---------------------------------------------------------------------------|
A#|---------------------------------------------------------------------------|
F#|---------------------------------------------------------------------------|
C#|-2-2-2-2-2-2-2--5-5-5-5-5-5-5-5--------------------------------------------|
G#|-2-2-2-2-2-2-2--5-5-5-5-5-5-5-5--------------------------------------------|
C#|-2-2-2-2-2-2-2--5-5-5-5-5-5-5-5--------------------------------------------|

D#|---------------------------------------------------------------------------|
A#|---------------------------------------------------------------------------|
F#|---------------------------------------------------------------------------|
C#|-0-0-0-0-0-0-0-0-0-0-0-0-0-0-0-0-0-0-0-0--2-2-2-2-2-2-2-2-5-5-5-5-5-5-5-5--|
G#|-0-0-0-0-0-0-0-0-0-0-0-0-0-0-0-0-0-0-0-0--2-2-2-2-2-2-2-2-5-5-5-5-5-5-5-5--|
C#|-0-0-0-0-0-0-0-0-0-0-0-0-0-0-0-0-0-0-0-0--2-2-2-2-2-2-2-2-5-5-5-5-5-5-5-5--|

D#|---------------------------------------------------------------------------|
A#|---------------------------------------------------------------------------|
F#|--------11b12---------11b12----------11b12-------------11b12---------------|
C#|-0--0-0--------0--0-0--------0--0-0-----------0--0--0----------------------|
G#|-0--0-0--9b10--0--0-0--9b10--0--0-0---9b10----0--0--0---9b10---------------|
C#|-0--0-0--------0--0-0--------0--0-0-----------0--0--0----------------------|

D#|---------------------------------------------------------------------------|
A#|---------------------------------------------------------------------------|
F#|-4---7----9---11--9---7----4----7-----11----9-----7------------------------|
C#|---------------------------------------------------------------------------|
G#|-2---5----7---9---7---5----2----5-----9-----7-----5------------------------|
C#|---------------------------------------------------------------------------|

************************************

| b   Bend

************************************

            
            
Suggest correction
Creating personal tab
Creating personal tab
You can edit any tab online and save it as your Personal.

You can edit, replace or remove any tab part or add personal notes – all changes will be seen only by you.

Personal tabs can be accessed anytime from any device, even offline.
Learn more »
comments
print report bad tab
1 comment total.
0 reply
SterlingFTW 495 May 27, 2017 05:17 PM

I think you got the basic structure of the song right, however there are some lead parts missing, especially in the verse, and the rhythm could be grouped better. It's a solid foundation though.

guest
You may want to rate the tab now too:
select rating
Wanna post a correction for this tab? Suggest correction