Oops, an error
Loading. Please wait.

Black Mass Desecration Tab

1,300 views 1 this week
no commentswrite comment
1 2 3 4 5
please rate
add to favorites
launch autoscroll
font size
0
reset
how to read this tab
guitar tuner
Autoscroll
slow
fast
+/-
esc
set tempo
stop
Help us to improve Ultimate-Guitar.com Take our survey!
×
Difficulty
novice
Black Mass Desecration
by Necros Christos
from Triune Impurity Rites
Tuning: A Standard
tab by: jtgilmore13


I didn't lay out the arrangement because it's incredibly simple.
You should also be able to figure out where the 16th notes and palm mutes are.
Like I said- very simple song, but a lot of fun to play.




RIFF 1
-----------------------------------------------------------|
-----------------------------------------------------------|
-----------------------------------------------------------|
-----------------------------------------------------------|
-----------2---3------1-2--------------2---1-----0--1------|
-0---3-----------2------------0----3----------2------------|


RIFF 2
----------------------------------------------------------------------|
----------------------------------------------------------------------|
----------------------------------------------------------------------|
------------------8---------------9-----------------------------------|
-----7--10--7----------10-9-10-----------7--10--7---3----2-1-2--------|
-0------------------------------------0---------------------------3---|


---------------------------------------------------------------------|
---------------------------------------------------------------------|
---------------------------------------------------------------------|
----------------8------------9---------------------------------------|
-----7--10--7------10-9-10-----------7--10--7---2---1------1---------|
-0---------------------------------0---------------------3------2----|


RIFF 3
-------------------------------------------------------------------------|
-------------------------------------------------------------------------|
-------------------------------------------------------------------------|
-------------------------------------------------------------------------|
------2--------2--3--1--3------2-----------2------2--3--1--3------2------|
-0---------0----------------3---------0-------0----------------3------1--|


RIFF 4
-------------------------------------------------------------------------|
-------------------------------------------------------------------------|
-------------------------------------------------------------------------|
-------------------------------------------------------------------------|
---------------2--2-1-2--------------------2--2-1---1--------------------|
-0--3--3--0--------------3--0--3--3--0------------3---2------------------|


----------------------------------------------------------------------|
----------------------------------------------------------------------|
----------------------------------------------------------------------|
----------------------------------------------------------------------|
---------------2--2-1-2-----------------------------------------------|
-0--3--3--0--------------3--0--3--3--0--3--3-2-1-2-0------------------|


RIFF 5a
-----------------------------------------------------------------------|
-----------------------------------------------------------------------|
-----------------------------------------------------------------------|
-------------------4---3--4--4-----------------------------------------|
-------------------2---1--2--2-----------------------------------------|
-0--3------0-----------------------------------------------------------|

RIFF 5b
-----------------------------------------------------------------------|
-----------------------------------------------------------------------|
-----------------------------------------------------------------------|
-------------------4---3--4--4-----------------------------------------|
-------------------2---1--2--2---------------------2---1---------------|
-0--3------0-----------------------0--3------0------------3--2--3--1---|



SOLO (arranged for one guitar)
-----------------------------------------------------------------------|
-----------------------------------------------------------------------|
-----------8-9-8-------------------------------------------------------|
--------9----------10-9-9-8----9-8-------------------------------------|
-7-10----------------------------------10-9------10-9------------------|
-----------------------------------------------------------------------|


-----------------------------------------------------------------------|
-------------------------7----8----------------------------------------|
-------------------8---------------8-----------------------------------|
--------------9--------------------------------------------------------|
--------9--------------------------------------------------------------|
--7--------------------------------------------------------------------|


-12p0--12p0--12p0--14p0--15p0--14p0--15p0--14p0------|
-----------------------------------------------------|
-----------------------------------------------------|
-----------------------------------------------------|
-----------------------------------------------------|
-----------------------------------------------------|


--------------------------------------------------------------------|
--------------------------------------------------------------------|
--------------------------------------------------------------------|
--------------------------------------------------------------------|
--------------------------------------------------------------------|
-11-----10----------------------11----10----------------------------|
-------------------11-----12-------------------11-----12------------|
Suggest correction new What's this?
You can suggest a correction to this tab. Community and Mods will review your correction and vote to approve or reject it.
comments
We did not receive enough feedback on this tab! Please rate:
print report bad tab
1 2 3 4 5
guest
You may want to rate the tab now too:
select rating
Please do not post tabs as comments. Select "correction" instead!