Oops, an error
Loading. Please wait.

Purifying Torment Tab

10 views 1 this week
no commentswrite comment
1 2 3 4 5
3 more votes to show rating
add to favorites
launch autoscroll
font size
0
reset
how to read this tab
guitar tuner
Autoscroll
slow
fast
+/-
esc
set tempo
stop
Help us to improve Ultimate-Guitar.com Take our survey!
×
Author
Difficulty
Tuning
intermediate
B E A D F# B
About this tab version
Added legend and to what the song goes back to. Was this info helpful? Yes No
[Riff A]
b |---------------------------------------------------------------------------|
F#|---------------------------------------------------------------------------|
G |---------------------------------------------------------------------------|
A |---------------------------------------------------------------------------|
E |-----2p0-----------------------2p0------0-h2-h3-h2-h3----------------------|
B |0--------1----4-3-4-3-4p3-0--------1---------------------------------------|
All tremolo picked

[Riff B]
b |---------------------------------------------------------------------------|
F#|---------------------------------------------------------------------------|
G |---------------------------------------------------------------------------|
A |--9--------------5------4--------------------------------------------------|
E |--7----6h7p6-----3------2--------------------------------------------------|
B |0-----------8-7-----0-2---2------------------------------------------------|

[Riff C]
b |---------------------------------------------------------------------------|
F#|---------------------------------------------------------------------------|
G |---------------------------------------------------------------------------|
A |---------------------------------------------------------------------------|
E |7tr--6tr-8tr-7tr--10tr8tr--------------------------------------------------|
B |-------------------------10tr7tr-------------------------------------------|

[Solo]
b |12tr-13p12h13p12-11tr-12p11h12p11-8tr11tr12tr13tr8tr11tr8tr7tr-------------|
F#|---------------------------------------------------------------------------|
G |---------------------------------------------------------------------------|
A |---------------------------------------------------------------------------|
E |---------------------------------------------------------------------------|
B |---------------------------------------------------------------------------|

b |---------------------------------------------------------------------------|
F#|---------------------------------------------------------------------------|
G |-----------------9tr-8tr-10tr-9tr-8tr-10tr-9tr-----------------------------|
A |---------------------------------------------------------------------------|
E |---------------------------------------------------------------------------|
B |---------------------------------------------------------------------------|

[Post Solo]
b |---------------------------------------------------------------------------|
F#|---------------------------------------------------------------------------|
G |---------------------------------------------------------------------------|
A |9----12--11-9----5--8--9----12--11-9----17--8--9---------------------------|
E |7----10--9--7----3--6--7----10--9--7----15--6--7---------------------------|
B |---------------------------------------------------------------------------|

[Riff A]
b |---------------------------------------------------------------------------|
F#|---------------------------------------------------------------------------|
G |---------------------------------------------------------------------------|
A |---------------------------------------------------------------------------|
E |-----2p0-----------------------2p0------0-h2-h3-h2-h3----------------------|
B |0--------1----4-3-4-3-4p3-0--------1---------------------------------------|
All tremolo picked

[Riff B]
b |---------------------------------------------------------------------------|
F#|---------------------------------------------------------------------------|
G |---------------------------------------------------------------------------|
A |--9--------------5------4--------------------------------------------------|
E |--7----6h7p6-----3------2--------------------------------------------------|
B |0-----------8-7-----0-2---2------------------------------------------------|

 
************************************

| h  Hammer-on
| p  Pull-off 
| tr Tremolo picked

************************************
Suggest correction
Give kudos to tab author, rate the tab!
1 2 3 4 5
comments
print report bad tab
guest
You may want to rate the tab now too:
select rating
Wanna post a correction for this tab? Suggest correction