Oops, an error
Loading. Please wait.

Happy Bass Tab

1,668 views 3 this week
no commentswrite comment
1 2 3 4 5
2 more votes to show rating
add to favorites
launch autoscroll
font size
0
reset
guitar tuner
Autoscroll
slow
fast
+/-
esc
set tempo
stop
Help us to improve Ultimate-Guitar.com Take our survey!
×
Author
Intro/verse:
G|19-19-19----------------------------------------------------|
D|17-17-17----19-19-19-17-16----------------------------------|
A|x--x--x-----17-17-17-17-17--19-17-19------------------------|
E|15-15-15--------------------15-15-15------------------------|



G|----------------11-11-11--9--0—-9--0--9------------------------|
D|12-12-12-12-12---0--0--0--0-12--0-12--0------------------------|
A|10-10-10-10-10--10-10-10-10-10-10-10-10------------------------|
E|---------------------------------------------------------------|
(x5)


chorus:
G|------------12-11------12-11-9-------9----7-9------------------|
D|12-12-12-12------99999--------12-9-12-9-7----55555-------------|
A|---------------------------------------------------------------|
E|---------------------------------------------------------------|



G|777-11-99999--11-11-11--9-7-7-7-7-----------------------------|
D|000-0--55555--9--9--9---7-5-5-5-5-----------------------------|
A|--------------------------------------------------------------|
E|--------------------------------------------------------------|
 
intro/verse
 chorus


Outro:
G|----9-----6-7---7-6-4-------------------------------------------|
D|9-12—9/7-----7/5---7-7-5-4--------------------------------------|
A|----------------------------------------------------------------|
E|----------------------------------------------------------------|
Suggest correction
Give kudos to tab author, rate the tab!
1 2 3 4 5
comments
print report bad tab
guest
You may want to rate the tab now too:
select rating
Wanna post a correction for this tab? Suggest correction