Oops, an error
Loading. Please wait.

Moment Of Our Love Tab

version 1
version 1

Whole song

Interactive

10,003 views 15 this week
no commentswrite comment
1 2 3 4 5
2 more votes to show rating
add to favorites
launch autoscroll
font size
0
reset
how to read this tab
guitar tuner
Autoscroll
slow
fast
+/-
esc
set tempo
stop
Help us to improve Ultimate-Guitar.com Take our survey!
×
Difficulty
novice
[Intro]
e|----------------------------------------------------------|
B|---12--12---12---12-----11---11---11---11-----------------|
G|------8----8----8---8------8-----8----8---8---------------|
D|----------------------------------------------------------|
A|----------------------------------------------------------|
E|----------------------------------------------------------|

e|----9---9----9----9---------------------------------------|
B|-------------------------12---12---11--11-12--------------|
G|------8----8----8---8------8-----8---8--------------------|
D|----------------------------------------------------------|
A|----------------------------------------------------------|
E|----------------------------------------------------------|

e|----------------------------------------------------------|
B|---12--12---12---11---11---11---11--9---------------------|
G|------8----8---8----8----8----8---------------------------|
D|----------------------------------------------------------|
A|----------------------------------------------------------|
E|----------------------------------------------------------|

[Verse 1]
e|----------------------------------------------------------|
B|---12--12---12-12---12-----11---11---11-11---11-----------|
G|------8----8------8-----------8----8-------8--------------|
D|----------------------------------------------------------|
A|----------------------------------------------------------|
E|----------------------------------------------------------|

e|----9---9----9-9--9---------------------------------------|
B|-------------------------12---12--12-11--11---------------|
G|------8----8----8---------8-----8-------8-----------------|
D|----------------------------------------------------------|
A|----------------------------------------------------------|
E|----------------------------------------------------------|

e|----------------------------------------------------------|
B|----------------------------------------------------------|
G|----------------------------------------------------------|
D|----------------------------------------------------------|
A|-----4--------5--------1--1-------------------------------|
E|-----4--------5--------1--1-------------------------------|

[Instrumental] (x3)
e|----------------------------------------------------------|
B|---1-2-11-12-14--12-11-12------12-11-12-14--12-11-12------|
G|----------------------------------------------------------|
D|----------------------------------------------------------|
A|----------------------------------------------------------|
E|----------------------------------------------------------|

e|---------14-----------------------------------------------|
B|---11-12----12-11-----------------------------------------|
G|----------------------------------------------------------|
D|----------------------------------------------------------|
A|----------------------------------------------------------|
E|----------------------------------------------------------|

[Verse 1] (x2)
e|----------------------------------------------------------|
B|---12--12---12-12---12-----11---11---11-11---11-----------|
G|------8----8------8-----------8----8-------8--------------|
D|----------------------------------------------------------|
A|----------------------------------------------------------|
E|----------------------------------------------------------|

e|----9---9----9-9--9---------------------------------------|
B|-------------------------12---12--12-11--11---------------|
G|------8----8----8---------8-----8-------8-----------------|
D|----------------------------------------------------------|
A|----------------------------------------------------------|
E|----------------------------------------------------------|

e|----------------------------------------------------------|
B|----------------------------------------------------------|
G|----------------------------------------------------------|
D|----------------------------------------------------------|
A|-----4--------5--------1--1-------------------------------|
E|-----4--------5--------1--1-------------------------------|

[Instrumental] (x2)
e|----------------------------------------------------------|
B|---12--12---12---12-----11---11---11---11-----------------|
G|------8----8----8---8------8-----8----8---8---------------|
D|----------------------------------------------------------|
A|----------------------------------------------------------|
E|----------------------------------------------------------|

e|----9---9----9----9---------------------------------------|
B|-------------------------12---12---11--11-12--------------|
G|------8----8----8---8------8-----8---8--------------------|
D|----------------------------------------------------------|
A|----------------------------------------------------------|
E|----------------------------------------------------------|

e|----------------------------------------------------------|
B|---12--12---12---11---11---11---11--9---------------------|
G|------8----8---8----8----8----8---------------------------|
D|----------------------------------------------------------|
A|----------------------------------------------------------|
E|----------------------------------------------------------|

[Verse]
e|----------------------------------------------------------|
B|---4--4---4-4---4-----3---3---3-3--3-----1--1----1-1---1--|
G|-----1---1----1---------1---1-----1-------1---1-----1-----|
D|----------------------------------------------------------|
A|----------------------------------------------------------|
E|----------------------------------------------------------|

e|----------------------------------------------------------|
B|----------------------------------------------------------|
G|----------------------------------------------------------|
D|----------------------------------------------------------|
A|----16x6----888888888888888888888888888-------------------|
E|----16x6----888888888888888888888888888-------------------|

e|----------------------------------------------------------|
B|----------------------------------------------------------|
G|----------------------------------------------------------|
D|----------------------------------------------------------|
A|---6--6--6--444444444444444444444444444-------3--3--------|
E|---6--6--6--444444444444444444444444444-------3--3--------|

e|----------------------------------------------------------|
B|----------------------------------------------------------|
G|----------------------------------------------------------|
D|-888888888888888888888888888888---------------------------|
A|-666666666666666666666666666666---------------------------|
E|----------------------------------------------------------|

e|----------------------------------------------------------|
B|----------------------------------------------------------|
G|----------------------------------------------------------|
D|----------------------------------------------------------|
A|---666666666666666------------7------3--------------------|
E|---666666666666666------------7------3--------------------|

e|----------------------------------------------------------|
B|----------------------------------------------------------|
G|------6-5-3-6-5-3-6-5-3-1-5-3-1-5-3-8-6-5-8-6-5-8-6-6-5-3-|
D|----------------------------------------------------------|
A|----------------------------------------------------------|
E|----------------------------------------------------------|

e|-----------------------------------------------------------|
B|-----------------------------------------------------------|
G|-6-5-3-6-5-6-5-3-6-5-3-6-5-5-3-1-5-3-1-5-3-8-6-5-8-6-5-8-6-|
D|-----------------------------------------------------------|
A|-----------------------------------------------------------|
E|-----------------------------------------------------------|

e|----------------------------------------------------------|
B|--------------------------------------------------9-------|
G|-6-5-3-6-5-3-6-5-6-5-6-8-6-5-6-5-6-8-6-5-6----5-6---6-5---|
D|----------------------------------------------------------|
A|----------------------------------------------------------|
E|----------------------------------------------------------|


************************************

| x  Dead note

************************************
Suggest correction
Give kudos to tab author, rate the tab!
1 2 3 4 5
comments
print report bad tab
guest
You may want to rate the tab now too:
select rating
Wanna post a correction for this tab? Suggest correction