Oops, an error
Loading. Please wait.

Via Le Mani Dagli Occhi Chords

version 1
version 1

Whole song

Interactive

109 views 6 this week
no commentswrite comment
1 2 3 4 5
3 more votes to show rating
add to favorites
launch autoscroll
font size
0
reset
transpose
0
reset
display chords
guitar tuner
Autoscroll
slow
fast
+/-
esc
set tempo
stop
Help us to improve Ultimate-Guitar.com Take our survey!
×
Author
Difficulty
novice
[intro]


|----------------   |---------------   |--------------    | --------------
|----------------   |---------------   |--------------    |---------------
|----------------   |---------------   |--------------    |---------------
|----------------   |---------------   |--------------    |---------------
|----------------   |-------2-1-----   |---------2-1--    |---------------
|-4-4-4-7-6-4----   |-0-0-0-----0---   |-2-2-2------2-    |-4-4-4-7-6-4---
              X2                   X2                X1                  X2


[verse 1]

G#m                B
Sii vai via, senza di me,tu vai via,
             F#                E
non puoi aspettare tanto tempo inutile,
     G#m           
e così tu vai sulla via,
 G#m                       B
sii che vai via, ma che freddo fa se tu vai via,
             F#                    E
non vuoi aspettare neanche il tempo utile,
          E
perché da me lo so si va soltanto

[chorus]

B                    F#
Via, via le mani dagli occhi, che senso ha
G#m              E
se poi ti tocchi i pensieri ancora lontani, lontani...

      |---------------------------------------
      |---------------------------------------
      |---------------------------------------      Rip.
      |---------------------------------------
      |---------------------------------------
      |-4-4-4-7-6-4-------7-7-7-10-9-7--------


[verse 2]

G#m              E
Strana magia in un istante tu vai via,
           F#                E
non vuoi leccarmi tutte le ferite,
      G#m
è così che tu vai via,
                G#m                B
ma da quando in qua no,non sei più mia,
        F#               E
tu sola che hai leccato tutte le ferite,
          E
lo sai da me tu non puoi proprio andare

[chorus]

B                    F#
Via, via le mani dagli occhi, che senso ha
G#m                   E
se poi ti tocchi i pensieri ancora lontani e vai
B                    F#
via, via le mani dagli occhi che senso
G#m               E
se poi mi blocchi le mani e rimandi a domani, domani...

[bridge]

C#m
domani e per sempre domani,
G#m
domani e per sempre rimani,
       E 
ma ora toccami le mani, Toccami le mani,
   F#
Toccami le mani, amore toccami le mani, Toccami le mani,
G#m                                           E
Toccami le mani, Toccami le mani, Toccami le mani,

Toccami le mani, Toccami le mani, e vai
B                      F#
Via, via le mani via gli occhi, che senso ha
 G#m               E
se poi ti tocchi i pensieri ancora lontani e vai

[chorus]

B                      F#
via, via le mani via gli occhi che senso ha
  G#m               E
se poi mi blocchi la mani e rimandi a

domani, domani, domani, domani, domani, domani, domani, domani…

[outro]

         G#m                                              D
Ti prego Toccami le mani, Toccami le mani, Toccami le mani,
                                   G#m
Toccami le mani, Toccami le mani, Toccami le mani, Toccami le mani,
                                  D               G#m
Toccami le mani, Toccami le mani, Toccami le mani, Toccale!



|----------------------------------------------------------------------
|----------------------------------------------------------------------
|----------------------------------------------------------------------
|----------------------------------------------------------------------
|----------------------------------------------------------------------
|-4-4-4-4-7-6-4-4-4-4-4-7-4-7-4-------7-7-7-7-10-9-7-7-7-7-7-10-7-10-7-
Suggest correction
Give kudos to tab author, rate the tab!
1 2 3 4 5
comments
print report bad tab
guest
You may want to rate the tab now too:
select rating
Wanna post a correction for this tab? Suggest correction