Oops, an error
Loading. Please wait.

Il Libro In Una Mano La Bomba Nell Altra chords

by Negrita
1,030 views 9 this week
no commentswrite comment
1 2 3 4 5
2 more votes to show rating
add to favorites
×
Save as Personal and add changes to this tab that will be seen only by you. Learn more ›
×
You can save this tab as Personal to edit and correct it or add notes. All changes will be seen only by you. Learn more »
launch autoscroll
font size
0
reset
transpose
0
reset
display chords
guitar tuner
edit
Autoscroll
slow
fast
+/-
esc
set tempo
stop
Author
Difficulty
Strumming
There is no strumming pattern for this song yet. and get +5 IQ
-------------------------------------------------------------------------------
            IL LIBRO IN UNA MANO LA BOMBA NELL'ALTRA - Negrita
-------------------------------------------------------------------------------
Tabbed by: Francesco Polese
E-mail: francesco.polese@gmail.com

Tuning: EADGBE

STROFA 1

F#-
La macchina che guidi guarda bene non è tua,
B-                                               C#-
la paghi tutti i giorni al fabbricante di liquame
F#-
che va a cena con i santi,
                                    B-           C#-
che t'infilano le bombe nelle tasche.

STROFA 2 

F#- 
E fanno guerre
                     
che bruciano ragazzi come te
B-                                 C#-
che cadono col sogno di proteggere un sogno
F#-
e in chiesa la gente che piange
               B-
fa largo e si stringe

 
                            C#-
nel posto in prima fila c'è sempre
     F#-                       
un governante che tratta col mercante
                 B-
che cena con i santi che tirano le bombe
   C#-                      F#-
e tirano le somme e il ciclo non si rompe,
                  B-                        C#-
la guerra non è santa, ma noi ci stiamo arrivando...

 
F#-                         
Col libro in una mano, la bomba nell'altra
B-                                      C#-
Col libro in una mano, la bomba nell'altra
F#-
Col libro in una mano, la bomba nell'altra
B-                         C#-
Col libro in una mano...

F#-   B-   C#-      X2 


Nel pane c'è il corpo,

nel vino c'è il sangue.

Nell'oro il demonio,

nell'umiltà il santo...

 

Nel pane c'è il corpo,

nel vino c'è il sangue.

Nell'oro il demonio,

nell'umiltà il santo...

 

STROFA 3 and 4 as STROFA 1 and 2

 

F#-                         
Col libro in una mano, la bomba nell'altra
B-                                       C#-
Col libro in una mano, la bomba nell'altra
F#-
Col libro in una mano, la bomba nell'altra
B-                         C#-
Col libro in una mano...

 

F#-                         
Col libro in una mano, la bomba nell'altra
B-                                     C#-
Col libro in una mano, la bomba nell'altra
F#-
Col libro in una mano, la bomba nell'altra
B-                         C#-
Col libro in una mano...

 

Abbiamo un libro, una religione.

Abbiamo il fuoco, abbiamo ragione.

Saremo più grandi, saremo più uniti,

saremo più forti di chi ci ha colpiti...

 

F#-                         
Col libro in una mano, la bomba nell'altra
B-                                    C#-
Col libro in una mano, la bomba nell'altra
F#-
Col libro in una mano, la bomba nell'altra
B-                         C#-
Col libro in una mano...

 
F#-   B-   C#-

LAST SOLO with wah wah until fading out

e|---------------------------------------------------------------------------|
B|-----------------------------------------------2-------------------2-------|
G|--4444444--22------4444444--22-------44444444-----2-------4444444-----2----|
D|---------------4----------------4-2-------------------4------------------4-|
A|---------------------------------------------------------------------------|
E|---------------------------------------------------------------------------|

e|---------------------------------------------------------------------------|
B|--------------------------------5/7--777777--555555-----14-------14--------|
G|--4444444--22------4444444--22-------666666--666666-----17b19~~~~17b19~~~~~|
D|---------------4------------------------------------------------------ ----|
A|---------------------------------------------------------------------------|
E|---------------------------------------------------------------------------|

e|---------------------------------------------------------------------------|
B|-14------------------------------------------------------------------------|
G|-17b19-----till the end----------------------------------------------------|
D|---------------------------------------------------------------------------|
A|---------------------------------------------------------------------------|
E|---------------------------------------------------------------------------|


************************************

| /   slide up
| \   slide down
| h   hammer-on
| p   pull-off
| ~   vibrato
| +   harmonic
| x   Mute note
| b   Bend
| pb  Pre-bend
| br  Bend release
| pbr Pre-bend release
| brb Bend release bend

************************************
Suggest correction
Creating personal tab
Creating personal tab
You can edit any tab online and save it as your Personal.

You can edit, replace or remove any tab part or add personal notes – all changes will be seen only by you.

Personal tabs can be accessed anytime from any device, even offline.
Learn more »
Give kudos to tab author, rate the tab!
1 2 3 4 5
comments
print report bad tab
guest
You may want to rate the tab now too:
select rating
Wanna post a correction for this tab? Suggest correction