Oops, an error
Loading. Please wait.

Transalcolico tab

version 1
version 1

Whole song

Interactive

by Negrita
136 views 1 this week
no commentswrite comment
1 2 3 4 5
2 more votes to show rating
add to favorites
×
Save as Personal and add changes to this tab that will be seen only by you. Learn more ›
×
You can save this tab as Personal to edit and correct it or add notes. All changes will be seen only by you. Learn more »
launch autoscroll
font size
0
reset
how to read this tab
guitar tuner
edit
Autoscroll
slow
fast
+/-
esc
set tempo
stop
Tuning: Half-step down
Tempo: 4/4
Metronome: 100 bpm (beats per minute)

[Intro]
  F#m              F#m                D                B
e|------------------------------------------------------------------------------|
B|------------------------------------------------------------------------------|
G|------------------------------------------------------------------------------|
D|----2-2-2-2-2-2-4----2-2-2-2-2-2-4----2-2-2-2-2-2-4----2-2-2-2---4------------|
A|---------------------------------------------------------------4--------------|
E|------------------------------------------------------------------------------|

   F#m              F#m                D                B
e|------------------------------------------------------------------------------|
B|------------------------------------------------------------------------------|
G|------------------------------------------------------------------------------|
D|----2-2-2-2-2-2-4----2-2-2-2-2-2-4----2-2-2-2-2-2-4----2-2-2-2---4------------|
A|---------------------------------------------------------------4--------------|
E|------------------------------------------------------------------------------|

[Verse]
    F#m                     F#m
e|------------------------------------------------------------------------------|
B|------------------------------------------------------------------------------|
G|------------------------------------------------------------------------------|
D|--4-4-4-2-2-2-2-4/x------4-4-4-2-2-2-2-4/x------------------------------------|
A|------------------------------------------------------------------------------|
E|------------------------------------------------------------------------------|
  Io bevo per dimenticare, bevo per non stare male

   E                      B 
e|------------------------------------------------------------------------------|
B|------------------------------------------------------------------------------|
G|------------------------------------------------------------------------------|
D|-----2------------------------------------------------------------------------|
A|-------2/7-7-7-7-7-7/x--9-9-9---7/9-9-9---------------------------------------|
E|-0-0--------------------7-7-7-0-5/7-7-7-0-------------------------------------|
  bevo, che così mi drogo, bevo tutto quel che trovo

    F#m                       F#m
e|------------------------------------------------------------------------------|
B|------------------------------------------------------------------------------|
G|------------------------------------------------------------------------------|
D|--4-4-4-2-2-2-2-4/x---------4-4-4-2-2-2-2-4/x---------------------------------|
A|------------------------------------------------------------------------------|
E|------------------------------------------------------------------------------|

[Second guitar]
e|------------------------------------------------------------------------------|
B|------------------------------------------------------------------------------|
G|-------2---4p2--2---------------2---4p2----2----------------------------------|
D|----4---------4---4---4-------4---------4----4--------------------------------|
A|------------------------------------------------------------------------------|
E|------------------------------------------------------------------------------|
  bevo che non mi fa niente, bevo come un deficiente

   E                       B
e|------------------------------------------------------------------------------|
B|------------------------------------------------------------------------------|
G|------------------------------------------------------------------------------|
D|-----2------------------------------------------------------------------------|
A|-------2/7-7-7-7-7-7/x---9-9-9---7/9-9-9--------------------------------------|
E|-0-0---------------------7-7-7-0-5/7-7-7-0------------------------------------|

[Second guitar]
e|------------------------------------------------------------------------------|
B|------------------------------------------------------------------------------|
G|-----2---4p2--2--------------2---4p2----2-------------------------------------|
D|--4---------4---4---4------4---------4----4-----------------------------------|
A|------------------------------------------------------------------------------|
E|------------------------------------------------------------------------------|
  bevo, cosa c'è che non va, bevo eppure sono qua

[Bridge]
   F#m              F#m                D                B
e|------------------------------------------------------------------------------|
B|------------------------------------------------------------------------------|
G|------------------------------------------------------------------------------|
D|----2-2-2-2-2-2-4----2-2-2-2-2-2-4----2-2-2-2-2-2-4----2-2-2-2---4------------|
A|---------------------------------------------------------------4--------------|
E|------------------------------------------------------------------------------|

   F#m              F#m                D                B
e|------------------------------------------------------------------------------|
B|------------------------------------------------------------------------------|
G|------------------------------------------------------------------------------|
D|----2-2-2-2-2-2-4----2-2-2-2-2-2-4----2-2-2-2-2-2-4----2-2-2-2---4------------|
A|---------------------------------------------------------------4--------------|
E|------------------------------------------------------------------------------|

[Verse]
    F#m                        F#m
e|------------------------------------------------------------------------------|
B|------------------------------------------------------------------------------|
G|------------------------------------------------------------------------------|
D|--4-4-4-2-2-2-2-4/x----------4-4-4-2-2-2-2-4/x--------------------------------|
A|------------------------------------------------------------------------------|
E|------------------------------------------------------------------------------|
 Io bevo che mi dà la carica, bevo che la vita è stupida

   E                       B 
e|------------------------------------------------------------------------------|
B|------------------------------------------------------------------------------|
G|------------------------------------------------------------------------------|
D|-----2------------------------------------------------------------------------|
A|-------2/7-7-7-7-7-7/x---9-9-9---7/9-9-9--------------------------------------|
E|-0-0---------------------7-7-7-0-5/7-7-7-0------------------------------------|
  bevo solo per fare rabbia a chi ha la testa nella sabbia

 F#m [upbeat]
[Second guitar]
e|-------------------------------------------------------------2-0--------------|
B|-------------------------------------------------------------2-0--------------|
G|------------------------------------------------------------------------------|
D|------------------------------------------------------------------------------|
A|------------------------------------------------------------------------------|
E|------------------------------------------------------------------------------|
  perche' credo che ognuno ha una misura e non sarà mai una censura

  E                           B
[Second guitar]
e|--------4---------------------------------------------------------------------|
B|----3/5-5---------------------------------------------------------------------|
G|------------------------------------------------------------------------------|
D|------------------------------------------------------------------------------|
A|----------------------------9-9-9---7/9-9-9-----------------------------------|
E|----------------------------7-7-7-0-5/7-7-7-0---------------------------------|
  in grado di poter stabilire cosa è bene e cosa è male

[Pre-chorus]
[Muted rhythmic guitar]
bevo solo per pisciare...

[Chorus]
   A                            D
e|------------------------------------------------------------------------------|
B|-2b2b2b-0---2b-0---2b-0-------2b2b2b-0---2b-0---2b-0--------------------------|
G|----------2------2------2--------------2------2------2------------------------|
D|------------------------------------------------------------------------------|
A|------------------------------------------------------------------------------|
E|------------------------------------------------------------------------------|
  Transalcoolico                Viaggio Cosmico

   B                            D                    F 
e|------------------------------------------------------------------------------|
B|-2b2b2b-0---2b-0---2b-0-------------------------------------------------------|
G|----------2------2------2-------2---4b5-2------------2---4b-------------------|
D|------------------------------4---4-------4--------3---3----------------------|
A|------------------------------------------------------------------------------|
E|------------------------------------------------------------------------------|
  puoi cercarmi lì...          quando sono così... quando sono così!

[Bridge]
   F#m              F#m                D                B
e|------------------------------------------------------------------------------|
B|------------------------------------------------------------------------------|
G|------------------------------------------------------------------------------|
D|----2-2-2-2-2-2-4----2-2-2-2-2-2-4----2-2-2-2-2-2-4----2-2-2-2---4------------|
A|---------------------------------------------------------------4--------------|
E|------------------------------------------------------------------------------|

   F#m              F#m                D                B
e|------------------------------------------------------------------------------|
B|------------------------------------------------------------------------------|
G|------------------------------------------------------------------------------|
D|----2-2-2-2-2-2-4----2-2-2-2-2-2-4----2-2-2-2-2-2-4----2-2-2-2---4------------|
A|---------------------------------------------------------------4--------------|
E|------------------------------------------------------------------------------|
 
[No guitar, voice only]
Io bevo anche se poi sto male, ma mi serve a far uscire
fuori la mia parte animale, devo farla respirare

[Verse]
    F#m                     F#m
e|------------------------------------------------------------------------------|
B|------------------------------------------------------------------------------|
G|------------------------------------------------------------------------------|
D|--4-4-4-2-2-2-2-4/x-------4-4-4-2-2-2-2-4/x-----------------------------------|
A|------------------------------------------------------------------------------|
E|------------------------------------------------------------------------------|
  bevo anche se non è vero, qui lo dico e qui lo nego

   E                         B
e|------------------------------------------------------------------------------|
B|------------------------------------------------------------------------------|
G|------------------------------------------------------------------------------|
D|-----2------------------------------------------------------------------------|
A|-------2/7-7-7-7-7-7/x-----9-9-9---7/9-9-9------------------------------------|
E|-0-0-----------------------7-7-7-0-5/7-7-7-0----------------------------------|
  solo per provocare, guarda che per giudicare

[Muted rhythmic guitar]
devi un po' saperci fare...

[Chorus]
   A                            D
e|------------------------------------------------------------------------------|
B|-2b2b2b-0---2b-0---2b-0-------2b2b2b-0---2b-0---2b-0--------------------------|
G|----------2------2------2--------------2------2------2------------------------|
D|------------------------------------------------------------------------------|
A|------------------------------------------------------------------------------|
E|------------------------------------------------------------------------------|
 Transalcoolico                Viaggio Cosmico

   B                            D                    F
e|------------------------------------------------------------------------------|
B|-2b2b2b-0---2b-0---2b-0-------------------------------------------------------|
G|----------2------2------2-------2---4b5-2------------2---4b-------------------|
D|------------------------------4---4-------4--------3---3----------------------|
A|------------------------------------------------------------------------------|
E|------------------------------------------------------------------------------|
  puoi cercarmi lì...          quando sono così... quando sono così!

   A                            D
e|------------------------------------------------------------------------------|
B|-2b2b2b-0---2b-0---2b-0-------2b2b2b-0---2b-0---2b-0--------------------------|
G|----------2------2------2--------------2------2------2------------------------|
D|------------------------------------------------------------------------------|
A|------------------------------------------------------------------------------|
E|------------------------------------------------------------------------------|
  Transalcoolico                Viaggio Cosmico

   B                            D                    F
e|------------------------------------------------------------------------------|
B|-2b2b2b-0---2b-0---2b-0-------------------------------------------------------|
G|----------2------2------2-------2---4b5-2------------2---4b-------------------|
D|------------------------------4---4-------4--------3---3----------------------|
A|------------------------------------------------------------------------------|
E|------------------------------------------------------------------------------|
  puoi cercarmi lì...          quando sono così... quando sono così!

[Bridge]
[First guitar]
    A  G#  A/G#/G/F#  F  E  F F/F#/C/C#/D     D  C#   D   D/C#/C/ B     F  G
[Second guitar]
e|-10--9--10--9-8-7---5--4--5-5-4--5--- 14---14--13--14--14/13/12/11--x/5--7-8--|
B|--9--8---9--8-7-6---4--3--4-4-3--4-1/ 13-- 13--12--13--13/12/11/10--x/4--6-7--|
G|-10--9--10--9-8-7---5--4--5-5-4--5-2/ 14---14--13--14--14/13/12/11--x/5--7-8--|
D|------------------------------------------------------------------------------|
A|------------------------------------------------------------------------------|
E|------------------------------------------------------------------------------|

[Outro]
[This is how a guitar would play the keyboard part]
   A
e|----------5------------------7------------------------------------------------|
B|------------------------------------------------------------------------------|
G|------------------------------------------------------------------------------|
D|------7-----------------7-----------------------------------------------------|
A|------------------------------------------------------------------------------|
E|-5-5----5-----------5-5---5---------------------------------------------------|
  Io bevo per dimenticare, bevo per non stare male

   G                  D           
e|----------3-------------------------------------------------------------------|
B|------------------------------------------------------------------------------|
G|------------------------5---5p4-----------------------------------------------|
D|------5-------------------------7---------------------------------------------|
A|--------------------5-5---5---------------------------------------------------|
E|-3-3----3---------------------------------------------------------------------|
  Bevo che così mi va, bevo tutta la città

   A
e|----------5------------------7------------------------------------------------|
B|------------------------------------------------------------------------------|
G|------------------------------------------------------------------------------|
D|------7-----------------7-----------------------------------------------------|
A|------------------------------------------------------------------------------|
E|-5-5----5-----------5-5---5---------------------------------------------------|
  Bevo per dimenticare, bevo per non stare male

   G                  D 
e|----------3-------------------------------------------------------------------|
B|------------------------------------------------------------------------------|
G|------------------------5---5p4-----------------------------------------------|
D|------5-------------------------7---------------------------------------------|
A|--------------------5-5---5---------------------------------------------------|
E|-3-3----3---------------------------------------------------------------------|
  Bevo che così mi va, bevo da fare pietà
   A
Bevo per dimenticare, bevo per non stare male
            G                  D           
Bevo che così mi va, bevo tutta la città

[Guitar solo in Am]

   A
e|------------------------------------------------------------------------------|
B|------------------------------------------------------------------------------|
G|---------5-5-4-----------5-5-4------------------------------------------------|
D|-----7-7-------7-----7-7-------7----------------------------------------------|
A|------------------------------------------------------------------------------|
E|-5-5-------------5-5----------------------------------------------------------|

   G               D
e|------------------------------------------------------------------------------|
B|------------------------------------------------------------------------------|
G|---------5-5-4----------------------------------------------------------------|
D|-----5-5-------5-----5-5-----5p4----------------------------------------------|
A|-----------------5-5-----5-5-----7--------------------------------------------|
E|-3-3--------------------------------------------------------------------------|


************************************

| /  Slide up
| p  Pull-off
| b  Bend

************************************

            
            
Suggest correction
Creating personal tab
Creating personal tab
You can edit any tab online and save it as your Personal.

You can edit, replace or remove any tab part or add personal notes – all changes will be seen only by you.

Personal tabs can be accessed anytime from any device, even offline.
Learn more »
Give kudos to tab author, rate the tab!
1 2 3 4 5
comments
print report bad tab
guest
You may want to rate the tab now too:
select rating
Wanna post a correction for this tab? Suggest correction